Song name
# A B C D E F G H I J K L M N O P Q R S T U V W X Y Z

Drowning The Light - Of Celtic Blood And Satanic Pride tab

Of Celtic Blood And Satanic Pride
     Drowning The Light

Hail, this is my first Drowning The Light Tab and I think the first one on this site. I 
pretty sure all the riffs are correct but the last riff might use some major and minor 
is a great song to play for bands and you shouldn't have any trouble with this 
tab. Just leave me a comment for corrects ect. Theres a guitar Pro tab of this on 
it's way as well.

Play at around 120 bpm.

  Time Signature: 4/4

                           Drowning The Light
   Riff 1

E||------------------------|-------------------------|
B||------------------------|-------------------------|
G||------------------------|-------------------------|
D||------------------------|-------------------------|
A||--4--7----5----5--5--5--|-5--5--5--5--4--4--4--4--|
E||--2--5----3----3--3--3--|-3--3--3--3--3--3--3--3--|

  |--------------------------|-------------------------|
  |--------------------------|-------------------------|
  |--------------------------|-------------------------|
  |--------------------------|-------------------------|
  |--4--4--4-----5--5--5--5--|--5--5--5--5--4--4--4--4-|
  |--3--3--3-----3--3--3--3--|--3--3--3--3--3--3--3--3-|

  |------------------------|--------------------------|
  |------------------------|--------------------------|
  |------------------------|--------------------------|
  |------------------------|--------------------------|
  |--4--7----9----9--9--9--|--9--9--9--9--9--9--9--9--|
  |--2--5----7----7--7--7--|--7--7--7--7--7--7--7--7--|

  |--------------------------|--------------------------|
  |--------------------------|--------------------------|
  |--------------------------|--------------------------|
  |--------------------------|--------------------------|
  |--9--9--9--9-----9--9--9--|--9--9--9--9--9--9--9--9--|
  |--7--7--7--7-----7--7--7--|--7--7--7--7--7--7--7--7--|

   Riff Two- *Let Ring*

  |-----------------------|----------------------|
  |-----------------------|----------------------|
  |--------7---------7----|-------7---------7----|
  |---5---------5---------|--5---------5---------|
  |-----------------------|----------------------|
  |-----------------------|----------------------|

  |-----------------------|----------------------|
  |-----------------------|----------------------|
  |--------7---------7----|-------7---------7----|
  |---5---------5---------|--5---------5---------|
  |-----------------------|----------------------|
  |-----------------------|----------------------|

  |-----------------------|----------------------|
  |-----------------------|----------------------|
  |--------4---------4----|-------4---------4----|
  |---2---------2---------|--2---------2---------|
  |-----------------------|----------------------|
  |-----------------------|----------------------|

  |-----------------------|----------------------|
  |-----------------------|----------------------|
  |--------4---------4----|-------4---------4----|
  |---2---------2---------|--2---------2---------|
  |-----------------------|----------------------|
  |-----------------------|----------------------|

  |-----------------------|----------------------|
  |-----------------------|----------------------|
  |-----------------------|----------------------|
  |--------5---------5----|--------5---------5---|
  |---3---------3---------|---3---------3--------|
  |-----------------------|----------------------|

  |-----------------------|----------------------|
  |-----------------------|----------------------|
  |-----------------------|----------------------|
  |--------5---------5----|--------5---------5---|
  |---3---------3---------|---3---------3--------|
  |-----------------------|----------------------|


  |-----------------------|----------------------|
  |-----------------------|----------------------|
  |-----------------------|----------------------|
  |--------5---------5----|--------5---------5---|
  |---2---------2---------|---2---------2--------|
  |-----------------------|----------------------|

  |-----------------------|----------------------|
  |-----------------------|----------------------|
  |-----------------------|----------------------|
  |--------5---------5----|--------5---------5---|
  |---2---------2---------|---2---------2--------|
  |-----------------------|----------------------|

   Riff Three- Triplets

  |---------------------------------|---------------------------------|
  |---------------------------------|---------------------------------|
  |---7----7----7----7----7----7----|---7----7----7----7----7----7----|
  |---5----5----5----5----5----5----|---5----5----5----5----5----5----|
  |---------------------------------|---------------------------------|
  |---------------------------------|---------------------------------|

  |---------------------------------|---------------------------------|
  |---------------------------------|---------------------------------|
  |---7----7----7----7----7----7----|---7----7----7----7----7----7----|
  |---5----5----5----5----5----5----|---5----5----5----5----5----5----|
  |---------------------------------|---------------------------------|
  |---------------------------------|---------------------------------|

  |---------------------------------|---------------------------------|
  |---------------------------------|---------------------------------|
  |---4----4----4----4----4----4----|---4----4----4----4----4----4----|
  |---2----2----2----2----2----2----|---2----2----2----2----2----2----|
  |---------------------------------|---------------------------------|
  |---------------------------------|---------------------------------|

  |---------------------------------|---------------------------------|
  |---------------------------------|---------------------------------|
  |---4----4----4----4----4----4----|---4----4----4----4----4----4----|
  |---2----2----2----2----2----2----|---2----2----2----2----2----2----|
  |---------------------------------|---------------------------------|
  |---------------------------------|---------------------------------|


  Structure
  Riff 1 x 8
  Riff 2 x 4
  Riff 3 x 8

Official Website:
www.myspace.com/drowningthelight
www.darkadversary.com
Tap to rate this tab
 
# A B C D E F G H I J K L M N O P Q R S T U V W X Y Z