Song name
# A B C D E F G H I J K L M N O P Q R S T U V W X Y Z

Drudkh - The Cranes Will Never Return Here tab

-------------------------------------------------------------------------------
                 THE CRANES WILL NEVER RETURN HERE - Drudkh
-------------------------------------------------------------------------------
Tabbed by: skaven
Email: skaven2 at gmail dot com

Tuning: Standard

Main riff
E | --------------------------------------|
B | --------------------------------------|
G | 7--10--10--10--9--7--15--14-15-14-----|
D | 7--10--10--10--9--7--15--14-15-14-----|
A | --------------------------------------|
E | --------------------------------------|

E | --------------------------------------|
B | --------------------------------------|
G | 7--10--10--10--9--7--12---------------|
D | 7--10--10--10--9--7--12---------------|
A | --------------------------------------|
E | --------------------------------------|

E | ---------------------------------------|
B | ---------------------------------------|
G | 12--14--15--15-----14--12--10--9-10--7-|
D | 12--14--15--15-----14--12--10--9-10--7-|
A | ---------------------------------------|
E | ---------------------------------------|

Ending A
E | --------------------------------------|
B | --------------------------------------|
G | 7--10--14--12--10--9--7---------------|
D | 7--10--14--12--10--9--7---------------|
A | --------------------------------------|
E | --------------------------------------|

Ending B
E | --------------------------------------|
B | --------------------------------------|
G | 7--10--14--12--10--14--19-------------|
D | 7--10--14--12--10--14--19-------------|
A | --------------------------------------|
E | --------------------------------------|

        ALTERNATIVE WAY OF PLAYING

Main riff
E | --------------------------------------|
B | 3--6--6--6--5--3--11--10-11-10--------|
G | 2--5--5--5--4--2--10--9--10-9---------|
D | --------------------------------------|
A | --------------------------------------|
E | --------------------------------------|

E | --------------------------------------|
B | 3--6--6--6--5--3--8-------------------|
G | 2--5--5--5--4--2--7-------------------|
D | --------------------------------------|
A | --------------------------------------|
E | --------------------------------------|

E | --------------------------------------|
B | 7--10--11--11-----10--8--6--5-6-3-----|
G | 8--9---10--10-----9---7--5--4-5-2-----|
D | --------------------------------------|
A | --------------------------------------|
E | --------------------------------------|

Ending A
E | --------------------------------------|
B | 3--6--10--8--6--5--3------------------|
G | 2--5--9---7--5--4--2------------------|
D | --------------------------------------|
A | --------------------------------------|
E | --------------------------------------|

Ending B
E | --------------------------------------|
B | 3--6--10--8--6--10--15----------------|
G | 2--5--9---7--5--9---14----------------|
D | --------------------------------------|
A | --------------------------------------|
E | --------------------------------------|


Or then just combine these two alternatives, suit yourselves.

Structure:
        Main riff
        Ending A
        Main riff
        Ending B
...and repeat.

| /  slide up
| \  slide down
| h  hammer-on
| p  pull-off
| ~  vibrato
| +  harmonic
| x  Mute note
===============================================================================
Tap to rate this tab
# A B C D E F G H I J K L M N O P Q R S T U V W X Y Z