Song name
# A B C D E F G H I J K L M N O P Q R S T U V W X Y Z

Drudkh - Fading tab

-------------------------------------------------------------------------------
                               FADING - Drudkh
-------------------------------------------------------------------------------
Tabbed by: skaven
Email: skaven2 at gmail dot com

Tuning: Standard

E | ------------------------------------------------------- |
B | -------10-------------10-------------8-------------8--- |
G | ------------------------------------------------------- |
D | --10--------10---10--------10---10-------10---10------- |
A | 0----0----0----0----0----0----0----0---0----0----0---0- |
E | ------------------------------------------------------- |

E | --------------------------------------------------------- |
B | --------------------------------------------------------- |
G | ----------10-------------10------------7-----------4----- |
D | 10---10--------10---10--------10---7-------7---3-------3- |
A | ---0----0----0----0----0----0----0---0---0---0---0---0--- |
E | --------------------------------------------------------- |

| /  slide up
| \  slide down
| h  hammer-on
| p  pull-off
| ~  vibrato
| +  harmonic
| x  Mute note
===============================================================================
Tap to rate this tab
# A B C D E F G H I J K L M N O P Q R S T U V W X Y Z