Song name
# A B C D E F G H I J K L M N O P Q R S T U V W X Y Z

Drudkh - Only The Wind Remembers My Name tab

E-------------------------------------------------|
B-------1-----------0-----------1-----------3-----|
G---2------2----2------2----2------2----2------2--|
D-2---2-------2---2-------2---2-------2---2-------|
A-------------------------------------------------|
E-------------------------------------------------|

E-------------------------------------------------|
B-------1-----------0-----------1-----------3-----|
G---2------2----2------2----2------2----2------2--|
D-3---3-------3---3-------3---3-------3---3-------|
A-------------------------------------------------|
E-------------------------------------------------|

E-------------------------------------------------|
B-------0-----------0-----------0-----------0-----|
G---2------2----2------2----2------2----2------2--|
D-0---0-------0---0-------0---0-------0---0-------|
A-------------------------------------------------|
E-------------------------------------------------|

E-------------------------------------------------|
B-------0-----------0-----------0-1--0------------|
G---2------2----2------2----2--------2------------|
D-3---3-------3---3-------2---2------2------------|
A-------------------------------------------------|
E-------------------------------------------------|
Tap to rate this tab
 
# A B C D E F G H I J K L M N O P Q R S T U V W X Y Z