Song name
# A B C D E F G H I J K L M N O P Q R S T U V W X Y Z

Drudkh - Only The Wind Remembers My Name tab

DRUDKH-Only the Wind Remembers My Name

Standard tuning

for the strumming, i just gave the main idea, you can
figure out/improv your own patterns

Intro- acoustic guitar

e--------------------------------------------------------|
b---------1-----------0-----------1-----------3----------|
g-2---2-------2---2-------2---2-------2---2--------------|
d---2---2---2---2---2---2---2---2---2---2---2------------|
a--------------------------------------------------------|
e--------------------------------------------------------|

e--------------------------------------------------------|
b-----------1-----------0-----------1-----------3--------|
g---2---2-------2---2-------2---2-------2---2------------|
d-2---3---3---3---3---3---3---3---3---3---3---3----------|
a--------------------------------------------------------|
e--------------------------------------------------------|

e--------------------------------------------------------|
b-----------0-----------0-----------0-----------0--------|
g---2---2-------2---2-------2---2-------2---2------------|
d-3---0---0---0---0---0---0---0---0---0---0---0----------|
a--------------------------------------------------------|
e--------------------------------------------------------|

e--------------------------------------------------------|
b-----------0-----------0-----------00h1--0-------------|
g---2---2-------2---2-------2---2----------2-------------|
d-0---3---3---3---3---3---3---2---2--------2-------------|
a--------------------------------------------------------|
e--------------------------------------------------------|

main riff- dist. guitar

e-------------------|-------------------|
b--0--1--1--1--0--0-|-0--1--1--1--0--0--|
g--2--2--2--2--2--2-|-2--2--2--2--2--2--|
d--2--2--2--2--2--2-|-2--2--2--2--2--2--|
a--0--0--0--0--0--0-|-0--0--0--0--0--0--|
e-------------------|-------------------|

e--------------------|------------------|
b--0--1--1--1--1--1--|-3--3--1--1--0--0-|
g--2--2--2--2--2--2--|-2--2--2--2--2--2-|
d--2--2--2--2--2--2--|-2--2--2--2--2--2-|
a--0--0--0--0--0--0--|------------------|
e--------------------|------------------|

e-------------------|-------------------|
b--0--1--1--1--0--0-|-0--1--1--1--0--0--|
g--2--2--2--2--2--2-|-2--2--2--2--2--2--|
d-3--3--3--3--3--3-|-3--3--3--3--3--3--|
a--3--3--3--3--3--3-|-3--3--3--3--3--3--|
e-------------------|-------------------|


e--------------------|------------------|
b--0--1--1--1--1--1--|-3--3--1--1--0--0-|
g--2--2--2--2--2--2--|-2--2--2--2--2--2-|
d--3--3--3--3--3--3--|-3--3--3--3--3--3-|
a--3--3--3--3--3--3--|------------------|
e--------------------|------------------|


temporarily split the riff...
Guitar 1
e-------------------|-------------------|
b-------------------|-------------------|
g--2--2--2--2--2--2-|-2--2--2--2--2--2--|
d-0--0--0--0--0--0-|-0--0--0--0--0--0--|
a--0--0--0--0--0--0-|-0--0--0--0--0--0--|
e-------------------|-------------------|

e--3--3--3--3--3--3-|--1--1--0--0-----0-|
b--0--0--0--0--0--0-|--0--0--0--0--3--0-|
g--2--2--2--2--2--2-|--2--2--2--2--2--2-|
d--0--0--0--0--0--0-|--0--0--0--0--0--0-|
a-------------------|-------------------|
e-------------------|-------------------|


Guitar 2			  v 8th notes
e-------------------|-------------3-3-3-3-|
b-------------------|-------------0-0-0-0-|
g--2--2--2--2--2--2-|-2--2--2--2--2-2-2-2-|
d-0--0--0--0--0--0-|-0--0--0--0--0-0-0-0-|
a--0--0--0--0--0--0-|-0--0--0--0----------|
e-------------------|---------------------|

e--3--3--3--3--3--3-|--1--1--0--0-----0---|
b--0--0--0--0--0--0-|--0--0--0--0--3--0---|
g--2--2--2--2--2--2-|--2--2--2--2--2--2---|
d--0--0--0--0--0--0-|--0--0--0--0--0--0---|
a-------------------|---------------------|
e-------------------|---------------------|



split is over now...
e-------------------|-------------------|
b--0--0--0--0--0--0-|--0--0--0--0--0--0-|
g--2--2--2--2--2--2-|--2--2--2--2--2--2-|
d-3--3--3--3--3--3-|--3--3--3--3--3--3-|
a--3--3--3--3--3--3-|--3--3--3--3--3--3-|
e-------------------|-------------------|

	       v more 8th notes
e----------------------|-------------------|
b----------------------|-------------------|
g--2--2--2--2--2-1-1-1-|--1--1--1--1--1--1-|
d--2--2--2--2--2-2-2-2-|--2--2--2--2--2--2-|
a--2--2--2--2--2-2-2-2-|--2--2--2--2--2--2-|
e----------------------|-------------------|


i dont have the solo, and i dont think i will tab it out... im not much good at those 
anyway. well, enjoy, and feel free to point out mistakes.
Thank you very much.
Tap to rate this tab
 
# A B C D E F G H I J K L M N O P Q R S T U V W X Y Z