Song name
# A B C D E F G H I J K L M N O P Q R S T U V W X Y Z

Drumcorps - Grist tab

Band Site-http://drumcorps.cc/

Song: Grist
Artist: Drumcorps
Album: Grist

Guitar 1: Rhythm
Guitar 2: Lead

For the first few minutes full of breakcore, Guitar 1 alternates between these chords.
e|-----------|
B|-----------|
G|-----------|
D|---1---0---|
A|---0---0---|
E|---0---0---|

For Guitar 1, play Riff 1, then Riff 2, then 1, then 2, and so on until the song ends.

(Starts at 3:11)
Guitar 1 (Riff 1)
e|----------------------------------------------|
B|----------------------------------------------|
G|----------------------------------------------|
D|0--x-x-x-x-0-0-0-x-x-x-0--x-x-x-x-0-0-0-x-x-x-|
A|0--x-x-x-x-0-0-0-x-x-x-0--x-x-x-x-0-0-0-x-x-x-|
E|0--x-x-x-x-0-0-0-x-x-x-0--x-x-x-x-0-0-0-x-x-x-|

e|----------------------------------------|
B|----------------------------------------|
G|----------------------------------------|
D|3--x-x-x-x-3-3-3-x-x-x-5--x-x-x-x-1-1-1-|
A|3--x-x-x-x-3-3-3-x-x-x-5--x-x-x-x-1-1-1-|
E|3--x-x-x-x-3-3-3-x-x-x-5--x-x-x-x-1-1-1-|

(Starts at 3:25)
Guitar 1 (Riff 2)
e|----------------------------------------------|
B|----------------------------------------------|
G|----------------------------------------------|
D|0--x-x-x-x-0-0-0-x-x-x-0--x-x-x-x-0-0-0-x-x-x-|
A|0--x-x-x-x-0-0-0-x-x-x-0--x-x-x-x-0-0-0-x-x-x-|
E|0--x-x-x-x-0-0-0-x-x-x-0--x-x-x-x-0-0-0-x-x-x-|

e|-----------------------------------------|
B|-----------------------------------------|
G|-----------------------------------------|
D|8--x-x-x-x-8-8-8-x-x-x-3--x-x-x-x-5-5-5-1|
A|8--x-x-x-x-8-8-8-x-x-x-3--x-x-x-x-5-5-5-1|
E|8--x-x-x-x-8-8-8-x-x-x-3--x-x-x-x-5-5-5-1|

For Guitar 2, play Riff 1 four times, then play Riff 2 four times.

(Starts at 3:25)
Guitar 2 (Riff 1) On the fourth play, end with 
e|-------5-5-5-5-10-10-10-5-5-5-5-|-15-15-15-15-|
B|-3-3-3--------------------------|-------------|
G|--------------------------------|-------------|
D|--------------------------------|-------------|
A|--------------------------------|-------------|
E|--------------------------------|-------------|

(Starts at 3:38)
Guitar 2 (Riff 2) 
e|-0-0-0-1-1-1-1-3-3-3-1-1-1-1-0-0-0-1-1-1-1-3-3-3-5-5-5-5-|
B|---------------------------------------------------------|
G|---------------------------------------------------------|
D|---------------------------------------------------------|
A|---------------------------------------------------------|
E|---------------------------------------------------------|

e|-6-6-6-5-5-5-5-6-6-6-5-5-5-5-3-3-3-5-5-1-1-3-3-3-3-1-0---|
B|---------------------------------------------------------|
G|---------------------------------------------------------|
D|---------------------------------------------------------|
A|---------------------------------------------------------|
E|---------------------------------------------------------|

On the fourth play, end with
e|-10-13-15-17|
B|------------|
G|------------|
D|------------|
A|------------|
E|------------|
Tap to rate this tab
 
# A B C D E F G H I J K L M N O P Q R S T U V W X Y Z