Song name
# A B C D E F G H I J K L M N O P Q R S T U V W X Y Z

Drunk Mums - Eventual Ghost Acoustic tab

Drunk Mums - http://drunkmums.bandcamp.com/

So I stumbled upon this video: http://www.youtube.com/watch?v=b6ZAlCcNGs4

I loved the song so I picked up the guitar and tried to tab out the lyrics. Here's
my best shot, please let me know of any issues you notice with the song.
__________________________________________________________________________
DRUNK MUMS - EVENTUAL GHOST

Quick Note: The song is pretty much the same riff over and over with a power chord 
break for the chorus.

VERSE:
    E                  G        E                    G
e|--0--0-0-0-0-0-3-0------------0--0-0-0-0-0-0-0-----------|
B|--0--2-2-3-3-0-0-0------------0--2-2-3-3-0-0-0-----------|
G|--1--1-1-1-1-1-1-1-0----------1--1-1-1-1-1-1-1-0---------|
D|--2--2-2-2-2-2-2-2-0-0-0-0-0--2--2-2-2-2-2-2-2-0-0-0-0-0-|
A|--2--2-2-2-2-2-2-2-0-2-2-2-2--2--2-2-2-2-2-2-2-0-2-2-2-2-|
E|--0--0-0-0-0-0-0-0---3-3-3-3--0--0-0-0-0-0-0-0---3-3-3-3-|
    1  2 & 3 & 4 1 2 & 3 & 4 &  1  2 & 3 & 4 1 2 & 3 & 4 &
CHORUS:
   D         G     C
e|-------------------------0-0-0-0-0-0-3-0-----------|
B|-------------------------0-2-2-3-3-0-0-0-----------|
G|-7-7-7-7-7-------5-5-5-5-1-1-1-1-1-1-1-1-0---------|
D|-7-7-7-7-7-5-5-5-5-5-5-3-2-2-2-2-2-2-2-2-0-0-0-0-0-|
A|-5-5-5-5-5-5-5-5-3-3-3-3-2-2-2-2-2-2-2-2-0-2-2-2-2-|
E|-----------3-3-3---------0-0-0-0-0-0-0-0---3-3-3-3-|
   1 2 3 4 & 1 2 & 3 & 4 & 1 2 & 3 & 4 1 2 & 3 & 4 &

I'm still working on getting the solo right. Since I'm not using a slide it is making 
things difficult. Pretty much just the verse riff as rhythm behind the solo.

LYRICS:

Wake up from a coma, I'm sleepin
Need some bed of my own
Gross from the hours of drinkin'
Gotta gather up the things that I own
That I've owned

Ghost gonna' keep us up all night
They're robbin' us of the day
We're nocturnal in daylight
Our eyes are fading away

(CHORUS)
That's alright we can live through the night and the day
Cause the roughed up kids from the small town is out of the way

They raise the shine on my head
But I got no fingers and toes
My blood's still pumpin' when I'm dead
Tower over my eventual ghost

(CHORUS)
(SOLO)
(CHORUS)

Raise the shine on my head
Tower over my eventual ghost
Blood's still pumpin' when I'm dead
Tower over my eventual ghost (repeat)

(CHORUS)
Tap to rate this tab
# A B C D E F G H I J K L M N O P Q R S T U V W X Y Z