Song name
# A B C D E F G H I J K L M N O P Q R S T U V W X Y Z

Dry Cell - Sick tab

Dry Cell: Sick

Transcribed by: mysticguitar77

Date last modified: January 18, 2011

Tuning: Drop Db (Db,Ab,Db,Gb,Bb,Eb)

Notes: Since I've been getting some requests to tab these songs, I'm just going to 
forget about tabbing both guitars and just tab what I covered on YouTube, so there will be 
parts missing. But, this is the whole framework of the song.

Riff 1
Eb|-----12------12--------12------12--|
Bb|-----15b-----15--------15b-----15b-|
Gb|-----------------------------------|
Db|-0-0-----0-0-------0-0-----0-0-----|
Ab|-----------------------------------|
Db|-----------------------------------|

Riff 2   "Come get some!"
Eb|-------------------------------------------|
Bb|-------------------------------------------|
Gb|-----8\7-7-7---8\7---------8\7-7-7---------|
Db|-----x-x-x-x---x-x---------x-x-x-x---------|
Ab|-0-0-6\5-5-5-0-6\5-0-3-0-0-6\5-5-5-0-1-0-3-|
Db|-0-0---------0-----0-3-0-0---------0-1-0-3-|
    * *         *     *   * *         *   *

Eb|---------------------------------------------|
Bb|---------------------------------------------|
Gb|-----8\7-7-7---8\7---------8\7-7-7-7-7-------|
Db|-----x-x-x-x---x-x---------x-x-x-x-x-x-------|
Ab|-0-0-6\5-5-5-0-6\5-0-3-0-0-6\5-5-5-5-5-0-1-3-|
Db|-0-0---------0-----0-3-0-0-------------0-1-3-|
    * *         *     *   * *

Play Riff 2 twice

Riff 3
Eb|-------------------------------------------------------------|
Bb|-------------------------------------------------------------|
Gb|-------------------------------------------------------------|
Db|-------------------------------------------------------------|
Ab|-0-0---0-0-0---0-0---0-0-0---0-0---0-0-0---0-0---0-0-0-0-0-1-|
Db|-0-0---0-0-0---0-0---0-0-0---0-0---0-0-0---0-0---0-0-0-0-0-1-|
    * *   * * *   * *   * * *   * *   * * *   * *   * * * * *

Play Riff 3 twice

Riff 4
Eb|---------------------------------|
Bb|---------------------------------|
Gb|---------------------------------|
Db|-8----10\-0----8----10\-1----\\\-|
Ab|-8----10\-0----8----10\-1----\\\-|
Db|-8----10\-0----8----10\-1----\\\-|

Play Riff 2   "I'm so fucking sick I don't want to!"
Play Riff 1
Play Riff 3 twice

Riff 5
Eb|------------------------------------------------------------|
Bb|------------------------------------------------------------|
Gb|------------------------------------------------------------|
Db|-8----10\-0----8----10\-0----8----10\-0----5----1-1-1-1-\\\-|
Ab|-8----10\-0----8----10\-0----8----10\-0----5----1-1-1-1-\\\-|
Db|-8----10\-0----8----10\-0----8----10\-0----5----1-1-1-1-\\\-|

Play Riff 2 x2   "I'm so fucking sick I don't want to!"

Transition (before bass solo)
Eb|-----|
Bb|-----|
Gb|-----|
Db|-----|
Ab|-0-0-|
Db|-0-0-|
    * *

Riff 6 (random pick scrapes and slides before this riff starts)
Eb|-----------------------------|
Bb|-----------------------------|
Gb|-----5b-----7------7b-----5b-|
Db|-----x------x------x------x--|
Ab|-0-0-3b-0-0-5--0-0-5b-0-0-3b-|
Db|-0-0----0-0----0-0----0-0----|
    * *    * *    * *    * *

Riff 6 note: Make sure you hit those bends right otherwise it won't sound right. I bend 
the strings down a half-step and that last bend has a vibrato.

Play Riff 6 x4
Play Riff 5
Play Riff 2 x2  "I'm so fucking sick I don't want to!"

Ending   "Say what!?"
Eb|-----|
Bb|-----|
Gb|-----|
Db|-----|
Ab|-0-0-|
Db|-0-0-|
    * *

That's it! Easy song, fun to play as are all Dry Cell songs. Don't forget to check my 
YouTube channel for my cover of this song as well as other Dry Cell songs. "Silence" is next!
Tap to rate this tab
 
# A B C D E F G H I J K L M N O P Q R S T U V W X Y Z