Song name
# A B C D E F G H I J K L M N O P Q R S T U V W X Y Z

Dry Cell - Body Crumbles tab

Dry Cell: Body Crumbles

Transcribed by: mysticguitar77

Date last modified: January 19, 2011

Tuning: Drop Db (Db,Ab,Db,Gb,Bb,Eb)

Riff 1 - Guitar 1 (after bass solo)
Eb|------------------------|
Bb|------------------------|
Gb|------------------------|
Db|-12--0-0--------12--0-0-|
Ab|-12--0-0--------12--0-0-|
Db|-12--0-0--------12--0-0-|
        * *            * *

Note: There's a volume swell on that 12 power chord, best done with a volume pedal.

Riff 1 - Guitar 2 (clean)
Eb|-----------------------------------|
Bb|---5h6p5--------------5h6p5--------|
Gb|-7---------5--------7---------5----|
Db|---------7------------------7----7-|
Ab|---------------------------------5-|
Db|-----------------------------------|

Riff 2 - Guitar 1   "Finally recover when the mood is right..."
Eb|----------------------------------------|
Bb|----------------------------------------|
Gb|----------------------------------------|
Db|-0-0--------5--5-5-5-5-5-0-0--------0-0-|
Ab|-0-0--------5--5-5-5-5-5-0-0--------0-0-|
Db|-0-0--------5--5-5-5-5-5-0-0--------0-0-|
    * *        h  h h h h h * *        * *

Riff 2 - Guitar 2 (clean)
Eb|------------------------------------------------------|
Bb|---5h6p5--------------5h6p5-----------------5h6p5-----|
Gb|-7---------5--------7---------5-----------7---------5-|
Db|---------7------------------7----7----------------7---|
Ab|---------------------------------5--------------------|
Db|------------------------------------------------------|

Riff 3 - Both guitars   "Finally I find when I lose control..."
Eb|-----------------------------------------|
Bb|-----------------------------------------|
Gb|-----------------------------------------|
Db|-0-0-0-0-0-8-8-8-8-0-3-3-3-0-0-1-1-1-1-1-|
Ab|-0-0-0-0-0-8-8-8-8-0-3-3-3-0-0-1-1-1-1-1-|
Db|-0-0-0-0-0-8-8-8-8-0-3-3-3-0-0-1-1-1-1-1-|

Guitar 1
Eb|---------------------------------------------|
Bb|---------------------------------------------|
Gb|---------------------------------------------|
Db|-0-0-0-0-0-8-8-8-8-0-3-3-3-3-5-5-5-5-5-5-5-5-|
Ab|-0-0-0-0-0-8-8-8-8-0-3-3-3-3-3-3-3-3-3-3-3-3-|
Db|-0-0-0-0-0-8-8-8-8-0-3-3-3-3-----------------|

Guitar 2
Eb|---------------------------------------------|
Bb|---------------------------------------------|
Gb|-----------------------------5-5-5-5-5-5-5-5-|
Db|-0-0-0-0-0-8-8-8-8-0-3-3-3-3-----------------|
Ab|-0-0-0-0-0-8-8-8-8-0-3-3-3-3-----------------|
Db|-0-0-0-0-0-8-8-8-8-0-3-3-3-3-----------------|
                                h h h h h h h h

Play Riff 3 1 1/2 times, then:
Eb|-----------------------|
Bb|-----------------------|
Gb|-----------------------|
Db|-0-0-0-0-0-8-8-8-8-0-3-|
Ab|-0-0-0-0-0-8-8-8-8-0-3-|
Db|-0-0-0-0-0-8-8-8-8-0-3-|

Riff 4 - Guitar 1 (not sure about this)   "All I need's a moment..."
Eb|---------------------------------------|
Bb|---------------------------------------|
Gb|---------------------------------------|
Db|-12-0-0-12-0-0-12-0-12-0-0-12-0-0-12-0-|
Ab|-12-0-0-12-0-0-12-0-12-0-0-12-0-0-12-0-|
Db|-12-0-0-12-0-0-12-0-12-0-0-12-0-0-12-0-|
       * *    * *    *    * *    * *    *

Just repeat that appropriate amount of times while Guitar 2 plays Riff 2 underneath and 
then a 3rd guitar plays this in there:
Eb|------------------|
Bb|------------------|
Gb|------------------|
Db|-5--5-5-5-5-5-0-0-|
Ab|-5--5-5-5-5-5-0-0-|
Db|-5--5-5-5-5-5-0-0-|
    h  h h h h h * *

Play Riff 3   "Finally I find when I lose control..."

Riff 5 - Both guitars
Eb|--------------------------------|
Bb|--------------------------------|
Gb|-9b--7--9-10-7----9b--7--9-10-7-|
Db|-x---x--x-x--x----x---x--x-x--x-|
Ab|-7b--5--7-8--5----7b--5--7-8--5-|
Db|--------------------------------|

Guitar 1 adds this after playing above:
Eb|-------------------|
Bb|-------------------|
Gb|-14-14-15-14/15\14-|
Db|-12-12-13-12/13\12-|
Ab|-------------------|
Db|-------------------|

Eb|--------------------------------------|
Bb|--------------------------------------|
Gb|-9b--7--9-10-7----9b--7--9-10---------|
Db|-x---x--x-x--x----x---x--x-x----------|
Ab|-7b--5--7-8--5----7b--5--7-8--0-0-0-0-|
Db|------------------------------0-0-0-0-|

Riff 6 - Both guitars   "Is it okay to be myself!" (chords only)
Eb|----------------------------------------------|
Bb|----------------------------------------------|
Gb|-10-------------------10----------------------|
Db|-10----3----0----0----10----3----0------------|
Ab|-8-----3----0----0----8-----3----0----0-0-0-0-|
Db|-8-----3----0----0----8-----3----0----0-0-0-0-|

The strumming pattern you'll have to figure out yourselves.
Another guitar plays Riff 5 underneath.

Play Riff 3 x4   "Finally I find when I lose control..."
End playing Riff 2 and fade out

That's all! Enjoy and don't forget to check my YouTube channel for my cover of this song 
along some other Dry Cell songs.
Tap to rate this tab
 
# A B C D E F G H I J K L M N O P Q R S T U V W X Y Z