Song name
# A B C D E F G H I J K L M N O P Q R S T U V W X Y Z

Dry Kill Logic - Nothing tab

song:nothing
band:dry kill logic
( wait for bass to finish)
E-------------------------------------|
B-------------------------------------|
G-------------------------------------|
D--------3-----3----------------------|
A--2--5--1--2--1--2--2--2--3333--5555-|
E--0--3-----0-----0--0--0--1111--3333-|
   repeat until change

E----------------|
B----------------|
G----------------|
D----------------|
A--3/5--3/5--3/5-|
E--1/3--1/3--1/3-|
/=SLIDE
this is also the verse melody

E-------------------------------|
B-------------------------------|
G-------------------------------|
D-------------------------------|
A--2--3--5--2--3--5--2--3--5--2-|
E--0--1--3--0--1--3--0--1--3--0-|
"now i see clearly"   -repeat until chorus

chorus is the same as before the sliding part
Tap to rate this tab
# A B C D E F G H I J K L M N O P Q R S T U V W X Y Z