Song name
# A B C D E F G H I J K L M N O P Q R S T U V W X Y Z

Dry Kill Logic - No Reason tab

Intro/Verse
e--------------------------------------------------------|
B------0---------0----------------0----------------------|
G-----0---0-----0-0------0---------0------0--------------|
D----5------5--5---4-4--4--4-----4--4--------------------|
A---3---------3-----3--2-----2--2-----/5-----------------|
E---------------------0--------0-------------------------|

...
e--------------------------------------------------------|
B------0---------0-------------0-------------------------|
G-----0---0-----0-0------0-----0-------------------------|
D----5------5--5---4-4--4--4---4--4-4-4-4----------------|
A---3---------3-----3--2----2--2--2-2-2-2----------------|
E---------------------0-----------0-0-0-0----------------|

Chorus
e--------------------------------------------------------|
B--------------------------------------------------------|
G--------------------------------------------------------|
D--7--2----7--2--5---------------------------------------|
A--5--2----5--2--5---------------------------------------|
E--5--0----5--0--3---------------------------------------|


In the first and 2nd verses, the following is played the third and second time through 
respective verses. But for ease, just play the above and its fine!
e--------------------------------------------------------|
B------0---------0---------------------------------------|
G-----0---0-----0-0------0---------0------0--------------|
D----5------5--5---4-4--4--4-----4--4--------------------|
A---3---------3-----3--2-----2--2----2-/5----------------|
E---------------------0--------0-------------------------|
Tap to rate this tab
# A B C D E F G H I J K L M N O P Q R S T U V W X Y Z