Song name
# A B C D E F G H I J K L M N O P Q R S T U V W X Y Z

Dry Kill Logic - Hindsight tab

Nu-metal guitar tone, so up the gain, scoop out the mids and turn up the bass. Song is in Drop D.

Intro -
E|-----|----------------------------------------------------------|
B|-----|----------------------------------------------------------|
G|-----|----------------------------------------------------------|
D|-----|----------------------------------------------------------|
A|-12\-|-0-8-8-0-8--0-0--8-8-0-8--0-0--8-8-0-8--0-0--8-8-0--------|
D|-12\-|-0-8-8-0-8--0-0--8-8-0-8--0-0--8-8-0-8--0-0--8-8-0-8/12\--|

E|----------------------------------------------------------|
B|----------------------------------------------------------|
G|----------------------------------------------------------|
D|----------------------------------------------------------|
A|-0-8-8-0-8--0-0--8-8-0-8--0-0--8-8-0-8--0-0--8-8-0-8-12---|
D|-0-8-8-0-8--0-0--8-8-0-8--0-0--8-8-0-8--0-0--8-8-0-8-12---|

E|----------------------------------------------------------|
B|----------------------------------------------------------|
G|----------------------------------------------------------|
D|----------------------------------------------------------|
A|-0-8-8-0-8--0-0--8-8-0-8--0-0--8-8-0-8--0-0--8-8-0--------|
D|-0-8-8-0-8--0-0--8-8-0-8--0-0--8-8-0-8--0-0--8-8-0-8/12\--|

E|----------------------------------------------------------|
B|----------------------------------------------------------|
G|----------------------------------------------------------|
D|----------------------------------------------------------|
A|-0-8-8-0-8--0-0--8-8-0-8--0-0--8-8-0-8--0-0--8-8-0--------|
D|-0-8-8-0-8--0-0--8-8-0-8--0-0--8-8-0-8--0-0--8-8-0-8/12v--|

Verse -
  PM--|    PM|    PM--|   PM
E|--------------------------------|
B|--------------------------------|
G|--------------------------------|
D|--------------------------------|
A|-0-0-0-6--0-0-6--0-0-0-6-0-6----|
D|-0-0-0----0-0----0-0-0---0------|

Pre-Chorus -
                                    PM------------|
E|------------------------------------------------------|
B|------------------------------------------------------|
G|------------------------------------------------------|
D|------------------------------------------------------|
A|-0-1-3-1-0--0--1-3-1-0--0-1-3-1-0--0-0-1-0-0-0-1-0----|
D|-0-1-3-1-0--0--1-3-1-0--0-1-3-1-0--0-0-1-0-0-0-1-0----|

Chorus -
E|--------------------------------------------------------------------|
B|--------------------------------------------------------------------|
G|--------------------------------------------------------------------|
D|--------------------------------------------------------------------|
A|-5-5-5-5-5-5-5-5-5-/8-8-8-8-8-\1-1-1-1-1-1-1-1-1-1-1-1-1-1-3-3-3----|
D|-5-5-5-5-5-5-5-5-5-/8-8-8-8-8-\1-1-1-1-1-1-1-1-1-1-1-1-1-1-3-3-3----|

Middle 8th -
  PM-----------------------------------------------------|
E|-----------------------------------------------------------------|
B|-----------------------------------------------------------------|
G|-----------------------------------------------------------------|
D|-----------------------------------------------------------------|
A|-----------------------------------------------------------------|
D|-0-8-8-0-8-8-0-0--8-8-8-0-8-8-0-0--8-8-0-8-8-0-0--8-8-0-8-/12----|

Outro -
E|----------------------------------------------------------------|
B|----------------------------------------------------------------|
G|----------------------------------------------------------------|
D|-----------------------------------------------------------0----|
A|-5-5-5-5-5-5-5-5-5-/8-8-8-8-8-\1-1-1-1-1-1-1-1-1-1-1-1-1-1-0----|
D|-5-5-5-5-5-5-5-5-5-/8-8-8-8-8-\1-1-1-1-1-1-1-1-1-1-1-1-1-1-0----|

any questions, e-mail me at hyperboole@gmail.com
Tap to rate this tab
# A B C D E F G H I J K L M N O P Q R S T U V W X Y Z