Song name
# A B C D E F G H I J K L M N O P Q R S T U V W X Y Z

Dschinghis Khan - Moskau Moskau tab

Chords? In Soviet Russia, Guitar plays Vocal Track!

First Verse
e|---8~-13-11-911-------9-8-68---------------------|
B|-6--------------13-----------9---------11-9-8-6~-|
G|------------------13~---------10~-(10)-----------|
D|-------------------------------------------------| x2
A|-------------------------------------------------|
E|-------------------------------------------------|

Pre-Chorus
e|-444-33-3033-4-|-444-33-30341-|-444-33-3033-4-|1-3-44-3-1-9-8-6-8~-|
B|---------------|--------------|---------------|--------------------|
G|---------------|--------------|---------------|--------------------|
D|---------------|--------------|---------------|--------------------|
A|---------------|--------------|---------------|--------------------|
E|---------------|--------------|---------------|--------------------|

Chorus
e|---8---8-1313119-11-----9-986-8--------------------|
B|-6---6-------------13----------9---11-9-8-6--------|
G|---------------------13---------10-----------------|
D|--------------------------------------------(HEY!)-|
A|---------------------------------------------------|
E|---------------------------------------------------|

First Chorus is played five times (counting the la-la-la but), second has five due to
the male solos ("Don't you think I'm cool in tights")
Tap to rate this tab
# A B C D E F G H I J K L M N O P Q R S T U V W X Y Z