Song name
# A B C D E F G H I J K L M N O P Q R S T U V W X Y Z

Dsis - Easy To Die tab

Intro/Chorus:
D|---------------------------|---------------------------|
A|---------------------------|---------------------------|
F|---------------------------|---------------------------|
C|3--3--3-3-3-3--3--3--3-3-3-|1--1--1-1-1-6--6--6--6-6-6-|
G|3--3--3-3-3-3--3--3--3-3-3-|1--1--1-1-1-6--6--6--6-6-6-|
C|3--3--3-3-3-3--3--3--3-3-3-|1--1--1-1-1-6--6--6--6-6-6-|

D|---------------------------|---------------------------|
A|---------------------------|---------------------------|
F|---------------------------|---------------------------|
C|3--3--3-3-3-3--3--3--3-3-3-|1--1--1-1-1-8--8--8--8-8-8-| x 2
G|3--3--3-3-3-3--3--3--3-3-3-|1--1--1-1-1-8--8--8--8-8-8-|
C|3--3--3-3-3-3--3--3--3-3-3-|1--1--1-1-1-8--8--8--8-8-8-|

Pre-Intro:
D|-----|
A|-----|
F|-----|
C|12\\3|
G|12\\3|
C|12\\3|

Pre-Chorus:
D|---------------|
A|---------------|
F|---------------|
C|0//12~~~~~12\\3|
G|0//12~~~~~12\\3|
C|0//12~~~~~12\\3|

After Chorus:
D|----|
A|----|
F|----|
C|8\\0|
G|8\\0|
C|8\\0|

Bridge:
D|-----------------------|---------------------|
A|-----------------------|---------------------|
F|-----------------------|---------------------|
C|3---3---3--1---1---1---|6---6---6--8--8--6--6| x 2
G|3---3---3--1---1---1---|6---6---6--8--8--6--6|
C|3---3---3--1---1---1---|6---6---6--8--8--6--6|

Solo (Play with Wha-wha):
D|------------------------|    D|------------------------|
A|------------------------|    A|------------------------|
F|10~~~~~12~~~~-----------|    F|10~~~~~12~~~~15~~~~~15\0|
C|-------------7~~~~~5-7-5| x3 C|------------------------|
G|------------------------|    G|------------------------|
C|------------------------|    C|------------------------|

Outro:
D|---------------------------------------------|
A|---------------------------------------------|
F|---------------------------------------------|
C|3~-------------------------------------------| (Let it ring out)
G|3~-------------------------------------------|
C|3~-------------------------------------------|
Tap to rate this tab
# A B C D E F G H I J K L M N O P Q R S T U V W X Y Z