Song name
# A B C D E F G H I J K L M N O P Q R S T U V W X Y Z

Dsis - Now You Die tab

Intro riff part 1:

D|-----------|
A|-----------|
F|-----------|
C|6-6-6-3-3-3|
G|6-6-6-3-3-3|
C|6-6-6-3-3-3|

Intro riff part 2:

D|------------------------------------------------|
A|------------------------------------------------|
F|------------------------------------------------|
C|6-0-0-6-0-0-6-0-0-5-6-7-6-0-0-6-0-0-6-0-0-5-6-7-|
G|6-0-0-6-0-0-6-0-0-5-6-7-6-0-0-6-0-0-6-0-0-5-6-7-|
C|6-0-0-6-0-0-6-0-0-5-6-7-6-0-0-6-0-0-6-0-0-5-6-7-|

Intro riff part 3:

D|----------------------------------------------------|
A|----------------------------------------------------|
F|----------------------------------------------------|
C|6-0-0-6-0-0-6-0-0-5-6-7-6-0-0-6-0-0-10-13-0-17-15-0-|
G|6-0-0-6-0-0-6-0-0-5-6-7-6-0-0-6-0-0-10-13-0-17-15-0-|
C|6-0-0-6-0-0-6-0-0-5-6-7-6-0-0-6-0-0-10-13-0-17-15-0-|

Intro riff part 4:

D|------------------------------------------------|
A|------------------------------------------------|
F|------------------------------------------------|
C|6-0-0-6-0-0-6-0-0-5-6-7-6-0-0-6-0-0-6-0-0-5-6-7-|
G|6-0-0-6-0-0-6-0-0-5-6-7-6-0-0-6-0-0-6-0-0-5-6-7-|
C|6-0-0-6-0-0-6-0-0-5-6-7-6-0-0-6-0-0-6-0-0-5-6-7-|

Intro riff part 5:

D|-------------------------------------|
A|-------------------------------------|
F|-------------------------------------|
C|6-0-0-6-0-0-6-0-0-5-6-7-6-0-0-6-0-0-6|
G|6-0-0-6-0-0-6-0-0-5-6-7-6-0-0-6-0-0-6|
C|6-0-0-6-0-0-6-0-0-5-6-7-6-0-0-6-0-0-6|

Pre-verse riff 1:

D|-------------------------------|
A|-------------------------------|
F|-------------------------------|
C|5-5-3-0------------------------| 
G|5-5-3-0--(Let ring for 2 bars)-|
C|5-5-3-0------------------------|

Verse 1 riff part 1: (Play 4 times)

D|------------------------------------------------|
A|------------------------------------------------|
F|------------------------------------------------|
C|------------------------------------------------|
G|------------------------------------------------|
C|6-0-0-6-0-0-6-0-0-5-6-7-6-0-0-6-0-0-6-0-0-5-6-7-|
PM. . . . . . . . . . . . . . . . . . . . . . . .

Verse 1 riff part 2: (Play with Wha-wha)

D|------------------------------------------------|
A|------------------------------------------------|
F|------------------------------------------------|
C|------------------------------------------------|
G|------------------------------------------------|
C|0-0-0-0-0-0-0-0-0-0-0-0-3-3-3-3-3-3-6-6-6-5-5-5-|

Verse 1 riff part 3: (Play with Wha-wha)

D|-----------------------------------|
A|-----------------------------------|
F|-----------------------------------|
C|-----------------------------------|
G|-----------------------------------|
C|0-0-0-0-0-0-0-0-0-0-0-0-3-3-3-3-3-3|

Pre-chorus riff:

D|-----------|
A|-----------|
F|-----------|
C|6-6-6-3-3-3|
G|6-6-6-3-3-3|
C|6-6-6-3-3-3|

Chorus 1 riff part 1:

D|------------------------------------------------|
A|------------------------------------------------|
F|------------------------------------------------|
C|6-0-0-6-0-0-6-0-0-5-6-7-6-0-0-6-0-0-6-0-0-5-6-7-|
G|6-0-0-6-0-0-6-0-0-5-6-7-6-0-0-6-0-0-6-0-0-5-6-7-|
C|6-0-0-6-0-0-6-0-0-5-6-7-6-0-0-6-0-0-6-0-0-5-6-7-|

Chorus 1 riff part 2:

D|----------------------------------------------------|
A|----------------------------------------------------|
F|----------------------------------------------------|
C|6-0-0-6-0-0-6-0-0-5-6-7-6-0-0-6-0-0-10-13-0-17-15-0-|
G|6-0-0-6-0-0-6-0-0-5-6-7-6-0-0-6-0-0-10-13-0-17-15-0-|
C|6-0-0-6-0-0-6-0-0-5-6-7-6-0-0-6-0-0-10-13-0-17-15-0-|

Chorus 1 riff part 3:

D|------------------------------------------------|
A|------------------------------------------------|
F|------------------------------------------------|
C|6-0-0-6-0-0-6-0-0-5-6-7-6-0-0-6-0-0-6-0-0-5-6-7-|
G|6-0-0-6-0-0-6-0-0-5-6-7-6-0-0-6-0-0-6-0-0-5-6-7-|
C|6-0-0-6-0-0-6-0-0-5-6-7-6-0-0-6-0-0-6-0-0-5-6-7-|

Chorus 1 riff part 4:

D|-----------------------------------|
A|-----------------------------------|
F|-----------------------------------|
C|6-0-0-6-0-0-6-0-0-5-6-7-6-0-0-6-0-0|
G|6-0-0-6-0-0-6-0-0-5-6-7-6-0-0-6-0-0|
C|6-0-0-6-0-0-6-0-0-5-6-7-6-0-0-6-0-0|

Pre-verse riff 2:

D|--------------------------------|
A|--------------------------------|
F|--------------------------------|
C|5---3---0-----------------------|
G|5---3---0---(Let it ring)-------|
C|5---3---0-----------------------|

Verse 2 riff part 1: (Play 4 times)

D|------------------------------------------------|
A|------------------------------------------------|
F|------------------------------------------------|
C|------------------------------------------------|
G|------------------------------------------------|
C|6-0-0-6-0-0-6-0-0-5-6-7-6-0-0-6-0-0-6-0-0-5-6-7-|
PM. . . . . . . . . . . . . . . . . . . . . . . .

Verse 2 riff part 2: (Play with Wha-wha)

D|------------------------------------------------|
A|------------------------------------------------|
F|------------------------------------------------|
C|------------------------------------------------|
G|------------------------------------------------|
C|0-0-0-0-0-0-0-0-0-0-0-0-3-3-3-3-3-3-6-6-6-5-5-5-|

Verse 2 riff part 3: (Play with Wha-wha)

D|-----------------------------------|
A|-----------------------------------|
F|-----------------------------------|
C|-----------------------------------|
G|-----------------------------------|
C|0-0-0-0-0-0-0-0-0-0-0-0-3-3-3-3-3-3|

Pre-chorus riff:

D|-----------|
A|-----------|
F|-----------|
C|6-6-6-3-3-3|
G|6-6-6-3-3-3|
C|6-6-6-3-3-3|

Chorus 2 riff part 1:

D|------------------------------------------------|
A|------------------------------------------------|
F|------------------------------------------------|
C|6-0-0-6-0-0-6-0-0-5-6-7-6-0-0-6-0-0-6-0-0-5-6-7-|
G|6-0-0-6-0-0-6-0-0-5-6-7-6-0-0-6-0-0-6-0-0-5-6-7-|
C|6-0-0-6-0-0-6-0-0-5-6-7-6-0-0-6-0-0-6-0-0-5-6-7-|

Chorus 2 riff part 2:

D|----------------------------------------------------|
A|----------------------------------------------------|
F|----------------------------------------------------|
C|6-0-0-6-0-0-6-0-0-5-6-7-6-0-0-6-0-0-10-13-0-17-15-0-|
G|6-0-0-6-0-0-6-0-0-5-6-7-6-0-0-6-0-0-10-13-0-17-15-0-|
C|6-0-0-6-0-0-6-0-0-5-6-7-6-0-0-6-0-0-10-13-0-17-15-0-|

Chorus 2 riff part 3:

D|------------------------------------------------|
A|------------------------------------------------|
F|------------------------------------------------|
C|6-0-0-6-0-0-6-0-0-5-6-7-6-0-0-6-0-0-6-0-0-5-6-7-|
G|6-0-0-6-0-0-6-0-0-5-6-7-6-0-0-6-0-0-6-0-0-5-6-7-|
C|6-0-0-6-0-0-6-0-0-5-6-7-6-0-0-6-0-0-6-0-0-5-6-7-|

Chorus 2 riff part 4:

D|-----------------------------------------------|
A|-----------------------------------------------|
F|-----------------------------------------------|
C|6-0-0-6-0-0-6-0-0-5-6-7-6-0-0-6-0-0-6-6-6-6-6-6|
G|6-0-0-6-0-0-6-0-0-5-6-7-6-0-0-6-0-0-6-6-6-6-6-6|
C|6-0-0-6-0-0-6-0-0-5-6-7-6-0-0-6-0-0-6-6-6-6-6-6|

Bridge part 1 riff 1:

D|------------------------------------------------|
A|------------------------------------------------|
F|5-5-5-5-5-5-5-5-5-5-5-5-3-3-3-3-3-3-3-3-3-3-3-3-|
C|5-5-5-5-5-5-5-5-5-5-5-5-3-3-3-3-3-3-3-3-3-3-3-3-|
G|3-3-3-3-3-3-3-3-3-3-3-3-1-1-1-1-1-1-1-1-1-1-1-1-|
C|------------------------------------------------|

Bridge part 1 riff 2:

D|------------------------------------------------|
A|------------------------------------------------|
F|7-7-7-7-7-7-7-7-7-7-7-7-6-6-6-6-6-6-6-6-6-6-6-6-|
C|7-7-7-7-7-7-7-7-7-7-7-7-6-6-6-6-6-6-6-6-6-6-6-6-|
G|5-5-5-5-5-5-5-5-5-5-5-5-4-4-4-4-4-4-4-4-4-4-4-4-|
C|------------------------------------------------|

Bridge part 1 riff 3:

D|------------------------------------------------|
A|------------------------------------------------|
F|5-5-5-5-5-5-5-5-5-5-5-5-3-3-3-3-3-3-3-3-3-3-3-3-|
C|5-5-5-5-5-5-5-5-5-5-5-5-3-3-3-3-3-3-3-3-3-3-3-3-|
G|3-3-3-3-3-3-3-3-3-3-3-3-1-1-1-1-1-1-1-1-1-1-1-1-|
C|------------------------------------------------|

Bridge part 1 riff 4:

D|------------------------------------------------|
A|------------------------------------------------|
F|7-7-7-7-7-7-7-7-7-7-7-7-4-4-4-4-4-4-4-4-4-4-4-4-|
C|7-7-7-7-7-7-7-7-7-7-7-7-4-4-4-4-4-4-4-4-4-4-4-4-|
G|5-5-5-5-5-5-5-5-5-5-5-5-2-2-2-2-2-2-2-2-2-2-2-2-|
C|------------------------------------------------|

Bridge part 2 riff 1: (Play 4 times)

D|------------------------------------------|
A|------------------------------------------|
F|------------------------------------------|
C|5-3--5-3--5-3--0-0-0-5-3--5-3--5-3--0-0-0-|
G|5-3--5-3--5-3--0-0-0-5-3--5-3--5-3--0-0-0-|
C|5-3--5-3--5-3--0-0-0-5-3--5-3--5-3--0-0-0-|

Bridge part 3 riff 1: (Play 7 times)

D|------------------------------------------------|
A|------------------------------------------------|
F|------------------------------------------------|
C|------------------------------------------------|
G|------------------------------------------------|
C|0-0-0-0-0-0-0-0-0-0-0-0-1-1-1-1-1-1-5-5-5-3-3-3-|
PM. . . . . . . . . . . . . . . . . . . . . . . .

Bridge part 3 riff 2:

D|------------------------------------|
A|------------------------------------|
F|------------------------------------|
C|------------------------------------|
G|------------------------------------|
C|0-0-0-0-0-0-0-0-0-0-0-0-1-1-1-1-1-1-|

Pre-chorus riff:

D|-----------|
A|-----------|
F|-----------|
C|6-6-6-3-3-3|
G|6-6-6-3-3-3|
C|6-6-6-3-3-3|

Final chorus riff part 1:

D|------------------------------------------------|
A|------------------------------------------------|
F|------------------------------------------------|
C|6-0-0-6-0-0-6-0-0-5-6-7-6-0-0-6-0-0-6-0-0-5-6-7-|
G|6-0-0-6-0-0-6-0-0-5-6-7-6-0-0-6-0-0-6-0-0-5-6-7-|
C|6-0-0-6-0-0-6-0-0-5-6-7-6-0-0-6-0-0-6-0-0-5-6-7-|

Final chorus riff part 2:

D|----------------------------------------------------|
A|----------------------------------------------------|
F|----------------------------------------------------|
C|6-0-0-6-0-0-6-0-0-5-6-7-6-0-0-6-0-0-10-13-0-17-15-0-|
G|6-0-0-6-0-0-6-0-0-5-6-7-6-0-0-6-0-0-10-13-0-17-15-0-|
C|6-0-0-6-0-0-6-0-0-5-6-7-6-0-0-6-0-0-10-13-0-17-15-0-|

Final chorus riff part 3:

D|------------------------------------------------|
A|------------------------------------------------|
F|------------------------------------------------|
C|6-0-0-6-0-0-6-0-0-5-6-7-6-0-0-6-0-0-6-0-0-5-6-7-|
G|6-0-0-6-0-0-6-0-0-5-6-7-6-0-0-6-0-0-6-0-0-5-6-7-|
C|6-0-0-6-0-0-6-0-0-5-6-7-6-0-0-6-0-0-6-0-0-5-6-7-|

Final chorus riff part 4:

D|-----------------------------------------------|
A|-----------------------------------------------|
F|-----------------------------------------------|
C|6-0-0-6-0-0-6-0-0-5-6-7-6-0-0-6-0-0-6-6-6-6-6-6|
G|6-0-0-6-0-0-6-0-0-5-6-7-6-0-0-6-0-0-6-6-6-6-6-6|
C|6-0-0-6-0-0-6-0-0-5-6-7-6-0-0-6-0-0-6-6-6-6-6-6|

Outro riff 1:

D|------------------------------------------|
A|------------------------------------------|
F|------------------------------------------|
C|5-3--5-3--5-3--0-0-0-5-3--5-3--5-3--0-0-0-|
G|5-3--5-3--5-3--0-0-0-5-3--5-3--5-3--0-0-0-|
C|5-3--5-3--5-3--0-0-0-5-3--5-3--5-3--0-0-0-|

Outro riff 2:

D|--------------------------------|
A|--------------------------------|
F|--------------------------------|
C|5-3--5-3--5-3--0-0-0-5-3--5-3--5|
G|5-3--5-3--5-3--0-0-0-5-3--5-3--5|
C|5-3--5-3--5-3--0-0-0-5-3--5-3--5|

Outro riff 3:

D|--------------------------------------------|
A|--------------------------------------------|
F|--------------------------------------------|
C|------0-------------------------------------|
G|------0-----(Let it ring out)---------------|
C|0-0-0-0-------------------------------------|
PM. . .
Tap to rate this tab
 
# A B C D E F G H I J K L M N O P Q R S T U V W X Y Z