Song name
# A B C D E F G H I J K L M N O P Q R S T U V W X Y Z

Dsound - Tattooed On My Mind tab

Tattooed on my Mind

Artist: D'Sound
Tabbed by: Adrian Carlo Picar
Cel. No.: 09267544905
Email Add.: picar.adrian@gmail.com
            banzaichibichan_ultimate_0034@yahoo.com


Una sa lahat, hindi ko kinapa ang kanta na 'to. Wala kasing tab sa www.guitartutee.com
kaya naisipan kong gumawa ng tab para sa kantang ito. Ngunit, pinakinggan ko pa rin
ang kanta at kung ano man ang aking nakita o napakinggan sa kanta ay inilagay ko sa tab 
na iyan. Hindi iyan 100% tugma sa mga guitartutee videos dahil una, wala akong nakitang
"consistency" sa pattern ng pagpapluck ng ibang mga nota (parang "random plucking lang sa 
1st to 3rd string) kaya inilagay ko na lang kung ano ang alam kong tama at pangalawa, parang 
may napakinggan akong mga unting mali sa mga nota na sa palagay ko ay hindi tugma sa mismong kanta.


Pakinggan na lamang ang kanta upang mas maintindihan pa ang tab at mag-enjoy sa pagtugtog. :)


Links:

http://www.guitartutee.com/d/dsound-d/dsound-tattoed-on-my-mind/
http://www.guitartutee.com/guitartutee/gt-live-sessions/gt-live-sessions-tattoed-
on-my-mind-with-chi-laja/


Intro:

E--------0--2--4-----2--0-------0----------------------------0---------|
B--2--4-----------0--------4----------2--2--------2----2--------2------|
G--------------------------4-------4--2--2--t-----2----2-----------2---|
D-------------------------------------------a--------------------------|
A--------------0----------------------------p--------------------------|
E--------------------------4----------2--------2-----2----2------------|

E--------------------------0-----------------------------------0---------|
B------4--------4----4--------4------------2--------2----2--------2------|
G------4--t-----4----4-----------4---------2--t-----2----2-----------2---|
D---------a-----------------------------------a--------------------------|
A---4-----p--4----4-----4-----------4---------p--------------------------|
E---------------------------------------2--------2----2-----2------------|

E--4-----2--0-------0--2--4--4--------4--4-----4------|
B-----0--------4----------------------------------2---|
G--------------4--4-------------t---------------------|
D-------------------------------a---------------------|
A--0----------------------------p---------------------|
E--------------4----------2--------2--------2---------|


Verse/Adlib:

*Halos eto yung bumubuo ng kanta

E--------------------------0-------------------------------0---------|\
B------4--------4----4--------4--------2--------2----2--------2------| \   
G------4--t-----4----4-----------4-----2--t-----2----2-----------2---|  \ ulit-ulitin hanggang
D---------a-------------------------------a--------------------------|  / mag-chorus
A---4-----p--4----4-----4-----------------p--------------------------| /
E-----------------------------------2--------2----2-----2------------|/


Chorus:

*Eto ung para sa "And I can't get you out of my dreams" part

E------------0---------------0-----------------------------0---------|
B------2--------2------4--------4------2--------2----2--------2------|
G------2---------------4---------------2--t-----2----2-----------2---|
D-----------------------------------------a--------------------------|
A---0-----0-------------------------------p--------------------------|
E-------------------4-----4---------2--------2----2-----2------------|


Bridge:

*Eto naman ung para sa "and now I curse you for being so sweet and so kind" part

E------------0---------------0------------------------------------------0---------|
B------2--------2------4--------4------2--------2-----4-----4-----4--------4------|
G------2---------------4---------------2--t-----2-----4-----4--------4--------4---|
D-----------------------------------------a---------------------------------------|
A---0-----0-------------------------------p---------2----2-----2------------------|
E-------------------4-----4---------2--------2------------------------------------|


End with:

E-------------X---|
B---2---------2---|
G---2----O----2---|
D--------R----0---|
A-------------0---|
E---2---------2---|


Lyrics:

Baby you'll soon forget about all,
or maybe you'll miss it like I do.
One things for sure
I'm on a doubt,
spend too much time thinkin' of you

And I can't get you out of my dreams
Now I know that you're the dangerous kind
And your smile is tattooed on my mind
And I can't get you out of my dreams

Don't wanna write,
I don't wanna call,
I would not know what to say
It should be you
That's how I want it to be
Tell me you feel the same way

And I can't get you out of my dreams
Now know that you're a danger first kind
And your smile is tattooed on my mind
And I can't get you out of my dreams...oh!

Oh, Yesterday, I was feelin' safe, oh
All I do today is tryin' to be BRAVE
and no melody can seem to suit my mind...
and now I curse you for being so sweet and so kind

And I can't get you out of my dreams
Now I know that you're a dangerous kind
And your face is tattooed on my mind
And I can't get you out of my dreams..

Yes I know you're tattooed
On my mind you're tattooed


Gusto ko magkaroon ng MATINONG banda!!!!!

"Failures are not bad in nature since they are stepping stones towards success."
Tap to rate this tab
# A B C D E F G H I J K L M N O P Q R S T U V W X Y Z