Dsound - Tattooed On My Mind Acoustic tab


ey guys, just check this out..
hope you like it..
and after, please leave a comments or suggestions,
i'm glad to know it, either it's bad or good..
i dedicate this to the girl i want, need..
the girl every bad guys want..
lame, hehe..

standard tunning (E,a,d,g,b,E)


Intro:

e------0-2-4-------2-0----------------------------*-|
b--2-4-----------2-----4-----5---------2-----5----*-|
g--------------2-----------4---4-----2-----2---4--*-|
d------------2-----------4---------2-----2--------*-|
a----------0--------------------------------------*-|
E----------------------4---------2----------------*-|

e---------------------------------------------*----|
b--------4-----5-----4---------2-----5--------*----|
g------4-----4-----4---4-----2-----2-----2-4--*----|
d----2-----2-----2---------2-----2-----2------*----|
a--4------------------------------------------*----|
E------------------------2--------------------*----|

e--4-------2-0-----------4----------------*--------|
b--------2-----4-----5-7-------2-----5----*--------|
g------2-----------4---------2-----2---4--*--------|
d----2-----------4---------2-----2--------*--------|
a--0--------------------------------------*--------|
E--------------4---------2----------------*--------|


Verse 1:
   Maybe youll soon, forget about all.
e-----------------------------------------------\---- /
b--------4-----5-----4-------2-----5----------------- / \
g------4-----4-----4-------2-----2-----2-4------  \-- /  4x
d----2-----2-----2-------2-----2-----2---------- ---- /
a--4------------------------------------------------- /
E----------------------2----------------------------- /

Chorus:
   And I cant get you out of my dreams
e--0-2-4-------2-0------------------------------------|
b------------2-----4-----5---------2-----5------------|
g----------2-----------4---4-----2-----2---4----------|
d--------2-----------4---------2-----2----------------|
a------0----------------------------------------------|
E------------------4---------2------------------------|
   Though I know youre a dangerous kind..
e-------------------------------------------------|
b--------4-----5-----4---------2-----5------------|
g------4-----4-----4---4-----2-----2-----2-4------|
d----2-----2-----2---------2-----2-----2----------|
a--4----------------------------------------------|
E------------------------2------------------------|
   And your smile is tattooed on my mind
e-------------------------------------------------|
b--------4-----5-----4--------2-----5-------------|
g------4-----4-----4--------2-----2-----2-4-------|
d----2-----2-----2--------2-----2-----2-----------|
a--4----------------------------------------------|
E-----------------------2-------------------------|
   And I cant get you out of my dreams
e--0-2-4-------2-0-----------4------------------------|
b------------2-----4-----5-7-------2-----5------------|
g----------2-----------4---------2-----2---4----------|
d--------2-----------4---------2-----2----------------|
a------0----------------------------------------------|
E------------------4---------2------------------------|


Verse 2:

e-----------------------------------------------\---- /
b--------4-----5-----4-------2-----5----------------- / \
g------4-----4-----4-------2-----2-----2-4------  \-- /  4x
d----2-----2-----2-------2-----2-----2---------- ---- /
a--4------------------------------------------------- /
E----------------------2----------------------------- /


Chorus:

e--0-2-4-------2-0------------------------------------|
b------------2-----4-----5---------2-----5------------|
g----------2-----------4---4-----2-----2---4----------|
d--------2-----------4---------2-----2----------------|
a------0----------------------------------------------|
E------------------4---------2------------------------|

e-------------------------------------------------|
b--------4-----5-----4---------2-----5------------|
g------4-----4-----4---4-----2-----2-----2-4------|
d----2-----2-----2---------2-----2-----2----------|
a--4----------------------------------------------|
E------------------------2------------------------|

e-------------------------------------------------|
b--------4-----5-----4--------2-----5-------------|
g------4-----4-----4--------2-----2-----2-4-------|
d----2-----2-----2--------2-----2-----2-----------|
a--4----------------------------------------------|
E-----------------------2-------------------------|

e--0-2-4-------2-0-----------4------------------------|
b------------2-----4-----5-7-------2-----5------------|
g----------2-----------4---------2-----2---4----------|
d--------2-----------4---------2-----2----------------|
a------0----------------------------------------------|
E------------------4---------2------------------------|

Adlib: musical part

e---4-------2-0------------------------------------|
b---------2-----4-----5---------2-----5------------|
g-------2-----------4---4-----2-----2---4----------|
d-----2-----------4---------2-----2----------------|
a---0----------------------------------------------|
E---------------4---------2------------------------|

e-------------------------------------------------|
b--------4-----5-----4---------2-----5------------|
g------4-----4-----4---4-----2-----2-----2-4------|
d----2-----2-----2---------2-----2-----2----------|
a--4----------------------------------------------|
E------------------------2------------------------|

e---------------------------------------2---------|
b--------4-----5-----4---------2--2-4-5-2---------|
g------4-----4-----4---4-----2----2-2-4-----------|
d----2-----2-----2---------2----------------------|
a--4----------------------------------------------|
E------------------------2------------------------|


Bridge:
Ohh, yesterday I was feel insane
e-----------------------------------------\--- /
b--2-2---2---2-2-4---5-5---5---5-5-4---------- / \
g--2-2---2---2-2-2---4-4---4---4-4-4------  \- / 3x
d--2-2---2---2-2-2---2-2---2---2-2-2------ --- /
a--0-0-0---0---------4-4-4---4---------------- /
E--------------------------------------------- /
    Now I curse you for being so sweet
e-------------------------------4-2--------|
b---2-----2-2-4-----4-4-5-----5---2--------|
g---2---2-----4---4-----4---4-----2--------|
d---2-2-------2-2-------6-6----------------|
a---0---------4---------4------------------|
E---------------------------------2--------|


Chorus:

e--0-2-4-------2-0------------------------------------|
b------------2-----4-----5---------2-----5------------|
g----------2-----------4---4-----2-----2---4----------|
d--------2-----------4---------2-----2----------------|
a------0----------------------------------------------|
E------------------4---------2------------------------|

e-------------------------------------------------|
b--------4-----5-----4---------2-----5------------|
g------4-----4-----4---4-----2-----2-----2-4------|
d----2-----2-----2---------2-----2-----2----------|
a--4----------------------------------------------|
E------------------------2------------------------|

e-------------------------------------------------|
b--------4-----5-----4--------2-----5-------------|
g------4-----4-----4--------2-----2-----2-4-------|
d----2-----2-----2--------2-----2-----2-----------|
a--4----------------------------------------------|
E-----------------------2-------------------------|

e--0-2-4-------2-0-----------4------------------------|
b------------2-----4-----5-7-------2-----5------------|
g----------2-----------4---------2-----2---4----------|
d--------2-----------4---------2-----2----------------|
a------0----------------------------------------------|
E------------------4---------2------------------------|


then Repeat this tiil it fades:

  Yes I know your tattooed, on my mind your tattooed..
e-----------------------------------------------|
b--------4-----5-----4-------2-----5------------|
g------4-----4-----4-------2-----2-----2-4------|
d----2-----2-----2-------2-----2-----2----------|
a--4--------------------------------------------|
E----------------------2------------------------|

----end of song,,please leave a comment or suggestion so i could make it
more comprehensive and accurate--------
by: jered101
    eminemdjackass@yahoo.com...
    check also in my facebook, i
    got videos there on how to play it..
    thankss....
Tap to rate this tab
 
# A B C D E F G H I J K L M N O P Q R S T U V W X Y Z