Song name
# A B C D E F G H I J K L M N O P Q R S T U V W X Y Z

Dsound - People Are People tab

please rate, share, comment. tnx :)


People Are People
D' Sound

- capo 4
- standard tuning


Intro, Verse, Chorus & Outro:

|-------*---------*---------*---------*------|
|-------T---------T---------T---------T------|  x2 (intro)
|----4--A--4---2--A--2---2--A--2---1--A--1---|  x8 (verse)
|----2--P--2---2--P--2---0--P--0---0--P--0---|  x2 (chorus)
|-4-----*---------*----2----*---------*------|  x8 (outro)
|------------2-------------------0-----------|


Pre- Chorus:

|------*---------*---------*---------*-------|
|------T---------T---------T---------T-------|
|---2--A--2---2--A--2---4--A--4---2--A--2----| x3
|---0--P--0---0--P--0---2--P--2---2--P--2----|
|-2----*----2----*----4----*---------*-------|
|-------------------------------2------------|

|------*---------*--------*----|
|------T---------T--------H----|
|---2--A--2---2--A--2--1--O----|
|---0--P--0---0--P--0--0--L----|
|-2----*----2----*--------D----|
|----------------------0--*----|


sequence of the song:

- intro
- verse
- pre-chorus
- chorus
- verse
- pre-chorus
- chorus
- chorus
- outro


I am the one
who believes in all that you say
I am the one
who never wants to define herself
I am the one
who's parallel, upfront, behind
I am the one
paddling like crazy through the night

Refine, old time, colorblind
Big sign, do time, doesn't rhyme
A lot, to much, standing tall
And I'm crying in the valley
I shall never, ever fall!

People are people
and I feel so strong
People are people and I'm
going on

I am the one
who stirs it up every time
I am the one
who never knows how close she is
I am the one
who'd rather be dead than confess
I am the one
trying to be good, wanting to be bad and so on

Excess, temptress, big mess
Phoney, lonely, it's a test
Be still my heart, don't you fail
And I'm crying on the stage floor
I will always prevail

People are people
and I feel so strong
People are people and I'm
going on

People are people
and I feel so strong
People are people and I'm
going on

I'm going onů 
I'm going onů 
I'm going onů 
I'm going onů 
Tap to rate this tab
# A B C D E F G H I J K L M N O P Q R S T U V W X Y Z