Guitaretab - guitar tabs
Song name
# A B C D E F G H I J K L M N O P Q R S T U V W X Y Z

Dsound - Tatooed On My Mind tab

Tatooed on my mind by Dísound

Tabbed by: Joshua Kuizon	
Email: jkuizon_23@yahoo.com

Tuning:Standard

Intro (plucking)
e|-------------------|------------------------------------|
B|-------------------|------------------------------------|
G|--1--4--2--4--6--2-|--1--4--2---------------------------|
D|--2--4--2--4--6--2-|--2--4--2---------------------------|
A|--2--2-----2--4----|--2--2------------------------------|
E|-------------------|------------------------------------|

Verse1 (4x)
e|----------0----------------0----------------------------|
B|------0-----0---0------0-----0---0----------------------|
G|--------1-----1----------2-----2------------------------|
D|---------------------2----------------------------------|
A|----2--------------0------------------------------------|
E|--0-----------------------------------------------------|

Chorus (plucking)
e|------------------------------------------------------|
B|------------------------------------------------------|
G|--1--4--2--4--6--2--1--4--2--1--4--2------------------|
D|--2--4--2--4--6--2--2--4--2--2--4--2------------------|
A|--2--2-----2--4-----2--2-----2--2---------------------|
E|------------------------------------------------------|


Verse2 (4x)
e|----------0----------------0----------------------------|
B|------0-----0---0------0-----0---0----------------------|
G|--------1-----1----------2-----2------------------------|
D|---------------------2----------------------------------|
A|----2--------------0------------------------------------|
E|--0-----------------------------------------------------|
[ Tab from: http://www.guitaretab.com/d/dsound/59908.html ]
Chorus (plucking)
e|------------------------------------------------------|
B|------------------------------------------------------|
G|--1--4--2--4--6--2--1--4--2--1--4--2------------------|
D|--2--4--2--4--6--2--2--4--2--2--4--2------------------|
A|--2--2-----2--4-----2--2-----2--2---------------------|
E|------------------------------------------------------|

e|------------------------------------------------------|
B|------------------------------------------------------|
G|--1--4--2--4--6--2--1--4--2---------------------------|
D|--2--4--2--4--6--2--2--4--2---------------------------|
A|--2--2-----2--4-----2--2------------------------------|
E|------------------------------------------------------|

Verse3
e|-----------------------|--------------------|
B|-----------------------|--------------------|
G|--6--6--6--2--2--2-(3x)|--6--4--2--4--------|
D|--6--6--6--2--2--2-----|--6--4--2--4--------|
A|--4--4--4--------------|--4--2-----2--------|
E|-----------------------|--------------------|

Chorus (plucking)
e|------------------------------------------------------|
B|------------------------------------------------------|
G|--1--4--2--4--6--2--1--4--2--1--4--2------------------|
D|--2--4--2--4--6--2--2--4--2--2--4--2------------------|
A|--2--2-----2--4-----2--2-----2--2---------------------|
E|------------------------------------------------------|

Outro (play until fade) 
e|------------------------|
B|------------------------|
G|--6---2-----------------|
D|--6---2-----------------|
A|--4---------------------|
E|------------------------|

Note: I dedicate this tab to my lovely sister Chloe...:)
Related for Tatooed On My Mind tab