Song name
# A B C D E F G H I J K L M N O P Q R S T U V W X Y Z

Dss - Apple Of My Eye tab

 My first tab,tabed by BigPumper,apple of my eye, by d.s.s. good song, sounds 
close. hope you enjoy.
   

Intro

    F#/Gb           G#Ab                 C#Db
E|-----------2---|-----4-----4---|-----6---------------------|
B|-----2----2--2-|------4---4--4-|----6-6---6-x-6-6--6--6-6-x|
G|----3-3--3--3--|----5----5--5--|---6-----6--x-6-6--6--6-6-x|
D|---4----4------|---6----6------|--6-----6---x-6-6--6--6-6-x|
A|--4----4-------|--6----6-------|-4-----4----------4---4-4-x|
E|-2---------------4-----------------------------------------|


Repeat through whole song( for the mute, you mute the strings by slaping it)
         
            F#/Gb                        G#/Ab                                    
E|---------------------------|---------------------------|
B|----2-2-x-2-2----2-2-x-2-2-|----4-4-x-4-4----4-4-x-4-4-|         
G|----3-3-x-3-3----3-3-x-3-3-|----5-5-x-5-5----5-5-x-5-5-|
D|----4-4-x-4-4----4-4-x-4-4-|----6-6-x-6-6----6-6-x-6-6-|
A|---------------------------|---------------------------|
E|-2-2-----2----2-2-----2----|-4-4-----4----4-4-----4----|

                       C#/Db
E|--------------------------------------------------|
B|----6-6-x-6-6---6-6-x-6-6---6-6-x-6-6---6-6-x-6-6-|
G|----6-6-x-6-6---6-6-x-6-6---6-6-x-6-6---6-6-x-6-6-|
D|----6-6-x-6-6---6-6-x-6-6---6-6-x-6-6---6-6-x-6-6-|
A|-4-4-----4---4-4-----4---4-4-----4---4-4-----4----|
E|--------------------------------------------------|
Tap to rate this tab
 
# A B C D E F G H I J K L M N O P Q R S T U V W X Y Z