Song name
# A B C D E F G H I J K L M N O P Q R S T U V W X Y Z

Duane Eddy - Raunchy tab

----------------------------------------------------------------------------
			     SONG NAME - Duane Eddy
----------------------------------------------------------------------------
Tabbed by: Roy Bartlett
Email: bartlett76@netzero.net
                
                          This is how i like to play it.
                        Email me with any questions or comments.
                This is my 2nd. tab, sorry about the timing. Probly off

Tuning: Standard (E,A,D,G,B,E)

e|-------22-------22-|
B|-------33-------33-|
G|-------22-------22-| Repeat 3 times
D|-----0-00-2^2^0-00-|
A|-0-2^--------------|
E|-------------------|

                         Beginning 2nd. part
e|-------22-------22-2-/-3353335333533353-|------10--|
B|-------33-------11-1-/-3353335333533353-|-9/10-10--|done in 1 beat
G|-------22-------22-2-/-4353435343534353-|10/11-----|repeat 8X
D|-----0-00-2^2^0-00-0-/-3353335333533353-|----------|
A|-0-2^----------------/-5353535353535353-|----------|
E|---------------------/-3353335333533353-|----------|


e|-55755575-33533353-----2-22--------2-22-|
B|-55755575-33533353-----3-33--------3-33-|
G|-65756575-43534353-----2-22--------2-22-|
D|-55755575-33533353--0--0-00-----0--0-00-|
A|-75757575-53535353----------0-2^--------|
E|-55755575-33533353----------------------|

           Or for second part you can do this.... pretty basic

e|--------------------------------------------------------------------------
B|--------------------------------------------------------------------------
G|--------------------------------------------------------------------------
D|-------------------------77-99-77-99-77-99-77-99--------------------------
A|-55-77-55-77-55-77-55-77-55-55-55-55-55-55-55-55-77-99-77-99-55-77-55-77--
E|-33-33-33-33-33-33-33-33-------------------------55-55-55-55-33-33-33-33--

e|---222---------222-|
B|---333---------333-| I usually mix the two up and have a few more things
G|---222---------222-| i throw in also. Hope you enjoy it and have fun.
D|-0-000-------0-000-|
A|--------0-2^-------|
E|-------------------|



| /  slide up
| \  slide down
| h  hammer-on
| p  pull-off
| ~  vibrato
| +  harmonic
| x  Mute note
| ^  Bend up 1/2 note
| ^^ Bend up whole note
===============================================================================
Tap to rate this tab
# A B C D E F G H I J K L M N O P Q R S T U V W X Y Z