Duane Eddy - Peter Gunn tab

I think this is correct


e|-----------------------------------------------------------|
B|-----------------------------------------------------------|
G|-----------------------------------------------------------|
D|----------------------------------------------------2------|
A|---------------------0-2-----2-------0--0-----0--4----2----|
E|--2b-0---------0-4------------4--0------------------------|

e|-----------------------------------------------------------|
B|-----------------------------------------------------------|
G|-----------------------------------------------------------|
D|-----------------------------------------------------------|
A|---------------------0-2-----------0---2-2-----------------|
E|--2b-0---------0-4------------0-4------------2b-0---------|

e|-----------------------------------------------------------|
B|-----------------------------------------------------------|
G|-----------------------------------------------------------|
D|------------------------------------------------------2----|
A|---------------------0-2-----2-------0--0-------0--4----2--|
E|--2b--0---------0-4------------4--0------------------------|

e|-----------------------------------------------------------|
B|-----------------------------------------------------------|
G|-----------------------------------------------------------|
D|-----------------------------------------------------------|
A|--------------------0--2------------0-2--2-----------------|
E|--2p-0---------0-4------------0-4-------------2b-0--------|
				Repeat 3 & 4
e|-----------------------------------------------------------|
B|-----------------------------------------------------------|
G|-----------------------------------------------------------|
D|--------------------------------------------------0-3------|
A|--------------------0-1-3----3-0----1---------1-------3---|
E|--0-0-1-1-1--------1---------------1-----------------------|

e|-----------------------------------------------------------|
B|-----------------------------------------------------------|
G|-----------------------------------------------------------|
D|-----------------------------------------------------------|
A|--------------------0-1-3-3------01-3-3-------------------|
E|--3b-1------------1------------1----------3b1-------------|
				MUSIC THEN
	
e|-----------------------------------------------------------|
B|-----------------------------------------------------------|
G|-----------------------------------------------------------|
D|------------------------------------------------1--4-------|
A|--------------------1--2-4-----4--1---2------2------4-----|
E|--3b-1---1---2----2------------------2---------------------|

e|-----------------------------------------------------------|
B|-----------------------------------------------------------|
G|-----------------------------------------------------------|
D|-----------------------------------------------------------|
A|---------------1-2-4-------1-2-4-4-------------------------|
E|--4b-2-------2-----------2---------4b-2--------------------|

e|-----------------------------------------------------------|
B|-----------------------------------------------------------|
G|-----------------------------------0-----------------------|
D|----------------0--0-------------2--0----------------------|
A|-----------2-3-------2---3-----3---------------------------|
E|---2--3--3-------------3-----------------------------------|

e|-----------------------------------------------------------|
B|-----------------------------------------------------------|
G|-----------------------------------------------------------|
D|----------------------0-----------0------------------------|
A|-----------------2-3---------2-3---------------------------|
E|--5b-3--------3-----------3------------5b-35b-------------|

Tap to rate this tab
 
# A B C D E F G H I J K L M N O P Q R S T U V W X Y Z