Song name
# A B C D E F G H I J K L M N O P Q R S T U V W X Y Z

Duane Eddy - Along Came Linda tab

---------------------------------------------------------------------------

"DUANE EDDY  ALONG CAME LINDA"

I didn't find a single tab anywhere on the whole net of this song so I 
finally spoke to a guy I know and he helped me with it, Im afraid that 
some parts in the song isn't entire correct but almost... 
Feel free to change this tab however you want, 
just make sure you publish it afterwards :)

Tab by: Joakim Biel and Mattias Persson - november 2012

---------------------------------------------------------------------------

INTRO

   A          C#m    F#m      A           Bm      C#m    F#m     A      

E|-9--9--9--|-12-12-----------9-------9-|-7--9-7---------2----2--0--------|
B|-10-10----|-14-14--10-10-10-10----10--|-7--0----9--9---2---2---2--------|
G|-9--9-----|-13-13--11-11----9----9----|-7-------9--9---2--2----2--------|
D|-11-11----|-11-11--11-11----11-11-----|-9-------11-11--4-4-----2--------|
A|-0--0-----|--------9--9-----0---------|-9-------11-11--4-------0--------|
E|----------|---------------------------|----------------2----------------|

   D       E        A      F#m        Bm     E        A     E7

E|-2---2------------0-0-0--2------2-|-2--2------------0--0----------2---0-|
B|-3---3---0-2---3--2-2----2----2---|-3--3---------0--2-----------3-------|
G|-2---2---1---1----2-2----2---2----|-4--4-2-1-2------2---------1---------|
D|-0---0---2--------2------4--4-----|-4--4---2---(2)--2-------------------|
A|------------------0------4-4------|-2--2---2--------0-------2-----------|
E|---------0---------------2--------|--------0--------------0-------------|

VERSE 

   A          C#m    F#m      A           Bm      C#m    F#m        A      

E|-9--9--9--|-12-12-----------9-------9-|-7--9-7---------2----2-----0-----|
B|-10-10----|-14-14--10-10-10-10----10--|-7--0----9--9---2---2----2-2-----|
G|-9--9-----|-13-13--11-11----9----9----|-7-------9--9---2--2----2--2-----|
D|-11-11----|-11-11--11-11----11-11-----|-9-------11-11--4-4---4----2-----|
A|-0--0-----|--------9--9-----0---------|-9-------11-11--4----------0-----|
E|----------|---------------------------|----------------2--------------0-|

   D        E         A       F#m       Bm          A

E|-2---2----0---------0--0----2-------|-2-----------0--------------0------|
B|-3---3----0-2---2---2--2-2-2---2---|-3---------0-2-----2---2--2--2-----|
G|-2---2----1-----2---2--2----2--2--2-|-4-4-2-1-2---2----2---2--2---------|
D|-0---0----2-----0---2--2----4-4-----|-4-4---2-----2---2---2--2----------|
A|----------2---------0--0----4-------|-2-2---2-----0-0-------------------|
E|----------0---0-------------2-------|-----------------------------------|

BRIDGE 

   C#7              F#m                  F#m       E

E|----------------------------------|------------------2------2----0------|
B|-9--9--9--12--12--11--11--11------|-9--9--9--12--12--2------2----0------|
G|-10-10-10-10--10--11--11--11---11-|-10-10-10-10--10--4---2--4----1------|
D|-11-11-11-11--11--11-11--11---11-|-11-11-11-11--11--4------4----2------|
A|------------------9---9---9----9--|------------------2--4---2----2------|
E|----------------------------------|------------------2------2----0---0--|

VERSE

   A          C#m    F#m      A            Bm       C#m   F#m   F#m A      

E|-9--9--9--|-12-12-----------9---------9|-7--9-7-7-------2-----2---0-----|
B|-10-10-10-|-14-14--10-10-10-10------10-|-7--0-0---9--9--2-----2---2-----|
G|-9--9--9--|-13-13--11-11-11-9------9---|-7--------9--9--2---2-2---2-----|
D|-11-11-11-|-11-11--11-11-11-11---11----|-9--------11-11-4--4--4---2-----|
A|-0--------|-11-----9--------0----------|-9--------11-11-4-----4---0-----|
E|----------|----------------------------|----------------2-----2------0--|

   D     E        A         F#m            Bm     E       A

E|-2--2--0--------0----0----2-----------|--2----------------------2-------|
B|-3--3--0-2-3-0--2-2--2----2--------2--|--3-----------0--2---2---2---2---|
G|-2--2--1--------2--2-2--2-2----2--2---|--4--4-2-1-2-----2--2-2--2-2--2--|
D|-0--0--2--------2----2----4---4--4----|--4------2--2----2-2-----4-------|
A|-------2--------0----0----4--4--------|--2------2-------0-------4-------|
E|-------0------------------2-----------|---------0---------------2-------|

   Bm   E         OUTRO

E|-2---------------|-9---12----------9--|---------------------------------|
B|-3------------0--|-10--14---10-10--10-|---------------------------------|
G|-4--4-2--1-2-----|-9---13---11-11--9--|---------------------------------|
D|-4-------2--(2)--|-11--11---11-11--11-|---------------------------------|
A|-2-------2-----0-|----------9--9------|---------------------------------|
E|---------0-------|--------0-----------|---------------------------------|

As I said. Im aware that some parts isn't correct, like the last part of the 
outro. And the last part of the first verse and some other parts... 
But hope you enjoy.

// Mattias.
Tap to rate this tab
# A B C D E F G H I J K L M N O P Q R S T U V W X Y Z