Song name
# A B C D E F G H I J K L M N O P Q R S T U V W X Y Z

Dub Pistols - 6 Million Ways To Live tab

I always wanted to learn the tab for this song, so i searched it, and found one tab
by DiFabs012, but it was slightly wrong so i've tweaked it to sound what i think 
is more right. 
(except from the end, couldn't fully work it out but i had a shot). So here it is...
oh and comment if you spot any mistakes :)

Standard Tuning
     Dm                                        Am
e|-----------1------------------1--------------------0------1-----0-------|
B|-------3-----3------3-----3------3-----3-------1------1-----1-----1---1-|
G|---------2-------2----------2-------2------------2------2-----2-----2---|
D|--0-0------------------0------------------------------------------------|
A|--------------------------------------------0---------------------------|
E|------------------------------------------------------------------------|
     Dm                                G                         Dm
e|-----------1------3-------1-------------3-----5-----3---------------1---|
B|-------3-----3-------3-------3------3-----3-----3-----3---3-----3-------|
G|---------2-----2--------2-------------3-----3-----3-----3---------2-----|
D|----0--------------------------3/5----------------------------0---------|
A|------------------------------------------------------------------------|
E|------------------------------------------------------------------------|

   Dm(cont.)     Am               Dm
e|------1--0------0--------------1---------------1------------------------|
B|--3---3----1---------------3-----3---3-----3-----3---3------------------|
G|----2------------------------2-----2---------2-----2--------------------|
D|-------------2-----2-----0---------------0------------------------------|
A|------------------------------------------------------------------------|
E|------------------------------------------------------------------------|
Tap to rate this tab
# A B C D E F G H I J K L M N O P Q R S T U V W X Y Z