Song name
# A B C D E F G H I J K L M N O P Q R S T U V W X Y Z

Dub Pistols - Six Million Ways To Live tab

This song has a sweet acoustic guitar riff, this song is very rare and no
web site i have found has had it tabbed, so i sat down and got the intro down,
so here it is...enjoy

Standard Tuning
     Dm                                        Am
e|-----------1------------------1--------------------0------1-----0-------|
B|-------3-----3------3-----3------3-----3-------1------1-----1-----1---1-|
G|---------2-------2----------2-------2------------2------2-----2-----2---|
D|--0-0------------------0--------------------2---------------------------|
A|------------------------------------------------------------------------|
E|------------------------------------------------------------------------|
     Dm                                G                         Dm
e|-----------1------3-------1-------------3-----5-----3---------------1---|
B|-------3-----3-------3-------3------3-----3-----3-----3---3-----3-------|
G|---------2-----2--------2------2/4----4-----4-----4-----4---------2-----|
D|----0---------------------------------------------------------0---------|
A|------------------------------------------------------------------------|
E|------------------------------------------------------------------------|

   Dm(cont.)     Am               Dm
e|--------------------------------------1--------------1--------------------|
B|--3---3---------------1----1-------3-----3---3----3-----3---3-------------|
G|----2-----------2-------2-----------2-----2--------2-----2----------------|
D|--------------2---2-------2----0---------------0--------------------------|
A|--------------------------------------------------------------------------|
E|--------------------------------------------------------------------------|

Thats pretty much it...if theres anything anyone needs to know..or any corrections
just email me at miamicanes012@yahoo.com
Tap to rate this tab
# A B C D E F G H I J K L M N O P Q R S T U V W X Y Z