Song name
# A B C D E F G H I J K L M N O P Q R S T U V W X Y Z

Dubious - Unthoughtful Thoughts tab

---------------------------------------------------------------------
			 Dubious - Unthoughtful Thoughts
---------------------------------------------------------------------

By:Jake White (tomdelon6e@hotmail.com)

Translations:
/=slide

Intro/chorus: Play 2 times *CLEAN*


e|-------------------------------------------------------------|
B|-------------------------------------------------------------|
G|-------------------------------------------------------------|
D|-9999-999/9999-999/6666-666/4444-444-------------------------|
A|-9999-999/9999-999/6666-666/4444-444-------------------------|
E|-7777-777/6666-666/4444-444/2222-222-------------------------|

Verse: Play 4 times *PALM MUTED*
  
e|-------------------------------------------------------------|
B|-------------------------------------------------------------|
G|-------------------------------------------------------------|
D|-------------------------------------------------------------|
A|-9999-999/9999-999/6666-666/4444-444-------------------------|
E|-7777-777/6666-666/4444-444/2222-222-------------------------|

Bridge: play 4 times *CLEAN*

e|-------------------------------------------------------------|
B|-------------------------------------------------------------|
G|-------------------------------------------------------------|
D|-------------------------------------------------------------|
A|---9--9--9--9--6--6--4--4------------------------------------|
E|-77-77-66-66-44-44-22-22-------------------------------------|

Verse: Play 4 times *PALM MUTED*

e|-------------------------------------------------------------|
B|-------------------------------------------------------------|
G|-------------------------------------------------------------|
D|-------------------------------------------------------------|
A|-9999-999/9999-999/6666-666/4444-444-------------------------|
E|-7777-777/6666-666/4444-444/2222-222-------------------------|

Guitar solo: Play 2 times *CLEAN*

e|-------------------------------------------------------------|
B|-------------------------------------------------------------|
G|---9---9-/--9---9-/--6---6-/--4---4--------------------------|
D|--9-9-9-9/-9-9-9-9/-6-6-6-6/-4-4-4-4-------------------------|
A|-7---7---/6---6---/4---4---/2---2----------------------------|
E|-------------------------------------------------------------|

Outro/Chorus: Play 2 times *CLEAN*

e|-------------------------------------------------------------|
B|-------------------------------------------------------------|
G|-------------------------------------------------------------|
D|-9999-999/9999-999/6666-666/4444-444-------------------------|
A|-9999-999/9999-999/6666-666/4444-444-------------------------|
E|-7777-777/6666-666/4444-444/2222-222-------------------------|

You guys this is my band were downloading our music onto kazza and morpheus so you should be able to get it soon here is one of the great songs by Dubious
Thanx, Jake White
Tap to rate this tab
 
# A B C D E F G H I J K L M N O P Q R S T U V W X Y Z