Song name
# A B C D E F G H I J K L M N O P Q R S T U V W X Y Z

Dubioza Kolektiv - Brijuni chords

Highlighted       Show chord diagrams
Dubioza Kolektiv - Brijuni

Intro

e-----------------------------------------|
B--12-11-12-10-9-10-10---10-10-8-7--7-8-8-|
G-----------------------------------------|
D-----------------------------------------|
A-----------------------------------------|
E-----------------------------------------|

e-----------------------------------------|
B--/12-11-12-10-9-10-10---10-8-7-4--4-5-5-|
G-----------------------------------------|
D-----------------------------------------|
A-----------------------------------------|
E-----------------------------------------|


riff 1
e-------------------------------------------------------------------------|
B-------------------------------------------------------------------------|
G-9-9-9-9-9-9-9-9-9-5-5-5-5-5-5-5-5-5-5-8-8-8-8-8-8-8-8-8-9-9-9-9-9-9-9-9-|
D-------------------------------------------------------------------------|
A-------------------------------------------------------------------------|
E-------------------------------------------------------------------------|

riff 2
e----------------------------------------------------------------------|
B----------------------------------------------------------------------|
G-------11h12p11--------------------------------------------9-9--8--9--|
D---9---------------14-----7---10h12p10-------9--7--9------------------|
A-7----------------------------------------12--------------------------|
E----------------------------------------------------------------------|

              Em                   Am
Na pulski aerodrom je sletilo vise charter aviona
    H                   Em
sastaju se predsjednici naseg regiona
    Em                    Am
Od crnih limuzina se formirala kolona
    H                    Em
svi zure da gliserima skoknu do Briona

riff 1
Danasnja je tema siva ekonomija

gdje se porez gubi, gdje se lova dobija
riff 1
Ima l' kak'e vajde od inostranih lobija

teske teme pa je neizbjezna gastronomija

Em                  Am
Kod svedskog stola su Josipovic i Nikolic
H                    Em
polako se pridruzuje i Bakir Izetbegovic
Em                     Am
Od danasnjeg sastanka zabolile ih nogice
H                       Em
"Zasto svedskom stolu fale svedske stolice?"

            Em                Am
Nikolic kaze: "Nase teznje i aspiracije
   H             Em
su ulazak u evro-atlantske integracije"
  Em             Am
Josipovic kaze: "Cuj, kompa, kuzis
H                       Em
koliko ti je krevet dug, tolk'o se i pruzis"
  Em                       Am
A Bakir bi na to samo jednu stvar da doda
    H                      Em
"Samo nek je zdravlja, bice sve, ako Bog da

(intro)
inshalllah, ako Bog da "

riff 2
Zeljko Komsic puni lulu mira

dobio je shita od zvanicnog Alzira
riff 2
U oblaku dima dok uzima gitaru kaze:
                          Em
"Hajde ba' da zapjevamo onu nasu staru"?

Em       H7      Em
Politika kurva...a
Am       F#7  H
ubila je bom..ba
Em            H7      Em
dzaba svi smo isti....i
Am           F#7  H
svi smo ista gov..na

Em                 Am
Sve tri delegacije stoje na balkonu
  H                  Em
u dobroj atmosferi i laganom fazonu
Em                  Am
Da li je od rakije ili dobrog shita
H                   Em
svima se ucinilo da cuju druga Tita


   Em                  Am
"Da vas pitam drugovi, majku li vam vasu
  H                 Em
zakaj ste razjebali, lijepu Jugu nasu
Em                  Am
Bratstva i jedinstva ugasili ste plamen
H                    Em
svi cete na Goli otok, tucacete kamen"

Em                Am
Nije ni zbog droge, nije kriva loza
  H                Em
sada opet cuju glas Josipa Broza


   Em                 Am
"Zakaj ste se usrali, samo malo humora
     H                  Em
da vas malo otrgnem od sastanka i umora
  Em                Am
Zasviraj harmoniku, razvezimo kravate
   H                 Em
za narod cemo lako, ko im jebe mater"

Em       H7      Em
Politika kurva...a
Am       F#7  H
ubila je bom..ba
Em            H7      Em
dzaba svi smo isti....i
Am           F#7  H
svi smo ista gov..na
Tap to rate this tab
# A B C D E F G H I J K L M N O P Q R S T U V W X Y Z