Song name
# A B C D E F G H I J K L M N O P Q R S T U V W X Y Z

Dubliners - Marino Waltz tab

 Q=165
    G              Bm            C              D             C
   3/4
    Gtr I
||---------------|-------------|--------------|-------------|----------------|
||o-\8-----------|-------------|--------------|-------------|----------------|
||-------7-------|-------------|--------------|-------------|----------------|
||-------------9-|-4-------9---|---------10---|-0-----------|-----0---2---4--|
||o--------------|-------------|-7------------|-------------|-3--------------|
||---------------|-------------|--------------|-------------|----------------|


  D               G             D             G              Bm
|---------------|-------------|-------------|--------------|--------------|
|---------------|---------0---|-------------|-\8-----------|---------7----|
|-----------2---|-0-----------|-2-----------|------7-------|--------------|
|-(4)---0-------|-----0-------|-------------|------------9-|-4------------|
|---------------|-------------|-------------|--------------|--------------|
|---------------|-------------|-------------|--------------|--------------|


  C             Am             D              D             G
|-------------|--------------|--------------|-------------|--------------|
|-5-----------|--------------|--------------|-------------|--------------|
|-----7---5---|---------\9---|-7------------|-------------|--------------|
|-------------|--------------|-----10-----7-|---------9---|-5------------|
|-------------|-7------------|--------------|-9-----------|--------------|
|-------------|--------------|--------------|-------------|--------------|

  1.              2.
  G               G               G             G             Bm
|--------------||-------------||--------------|-------------|--------------|
|---------5-7-o||-------------||o-------------|-------------|--------------|
|---7-6-7------||-------------||--------------|-0---2---4---|-4------------|
|-5------------||-5-----------||--0---2---4---|-------------|--------------|
|-------------o||-------------||o-------------|-------------|--------------|
|--------------||-------------||--------------|-------------|--------------|


  Bm            C             C             D               D
|-------------|-------------|-------------|---------------|-------------|
|-------------|-------------|-------------|---------------|-------------|
|-------------|-------------|-5-----------|-0-------------|-------------|
|-4-------3---|-2-----------|---------2---|---------4---2-|-4-----------|
|-------------|-------------|-------------|---------------|-------------|
|-------------|-------------|-------------|---------------|-------------|


  C               D             G             C             Am
|---------------|-------------|-------------|-------------|-------------|
|---------------|-------------|---------3---|-5-------3---|-1-----------|
|-------------0-|---------2---|-0-----------|-------------|-----2-------|
|-----0---2-----|-4---0-------|-----0-------|-------------|---------4---|
|-3-------------|-------------|-------------|-------------|-------------|
|---------------|-------------|-------------|-------------|-------------|


                              1.              2.
                                         D.C. al Coda
  D             G             G               G
|-------------|-------------|--------------||---------------||
|-------------|-------------|-------------o||---------5-7---||
|---------4---|-0-----------|-0------------||---7-6-7-------||
|-0-----------|-------------|--------------||-5-------------||
|-------------|-------------|-------------o||---------------||
|-------------|-------------|--------------||---------------||

Coda
  G              Bm            C              D             C
|--------------|-------------|--------------|-------------|---------------|
|-\8-----------|-------------|--------------|-------------|---------------|
|------7-------|-------------|--------------|-------------|---------------|
|------------9-|-4-------9---|---------10---|-0-----------|-----0---2---4-|
|--------------|-------------|-7------------|-------------|-3-------------|
|--------------|-------------|--------------|-------------|---------------|

  D             G             D             G              Bm
|-------------|-------------|-------------|--------------|--------------|
|-------------|---------0---|-------------|-\8-----------|---------7----|
|---------2---|-0-----------|-2-----------|------7-------|--------------|
|-4---0-------|-----0-------|-------------|------------9-|-4------------|
|-------------|-------------|-------------|--------------|--------------|
|-------------|-------------|-------------|--------------|--------------|

  C             Am             D
|-------------|--------------|--------------|
|-5-----------|--------------|--------------|
|-----7---5---|---------\9---|-7------------|
|-------------|--------------|-----10-----7-|
|-------------|-7------------|--------------|
|-------------|--------------|--------------|

  D             G             G
|-------------|-------------|-3----*|
|-------------|-----------3-|------*|
|-------------|---------4---|------*|
|---------9---|-5---4-5-----|------*|
|-9-----------|-------------|------*|
|-------------|-------------|------*|

Tap to rate this tab
 
# A B C D E F G H I J K L M N O P Q R S T U V W X Y Z