Song name
# A B C D E F G H I J K L M N O P Q R S T U V W X Y Z

Dubliners - Foggy Dew tab

Dubliners - The foggy dew
(no capo)

E--------------------------------------------------------------------------|
B--------------------------------------------------------------------------|
G-----0--2--0----2--0------------------------------------------------------|
D---2--------2--------2---0--2--------------2--0---------------------------|
A----------------------------------0--2--3--------3--0------0--------------|
E-------------------------------3-----------------------3------------------|

  Twas down the glen one East-er morn to a__ city fair rode I.

E--------------------------------------------------------------------------|
B--------------------------------------------------------------------------|
G-----0--2--0----2--0------------------------------------------------------|
D---2--------2--------2---0--2--------------2--0---------------------------|
A-----------------------------------0--2--3--------3--0------0-------------|
E-------------------------------3-----------------------3------------------|

  When Ireland's lines of marching men in squad rons passed my by

E--------------------------------------------------------------------------|
B------------------------------------------1-0-----------------------------|
G--------------0--------------------------------2-0----0---2------0--------|
D-----------2-----3--2---0--0--2----0---2------------2---------2-----------|
A--0-2---3------------------------3----------------------------------------|
E--------------------------------------------------------------------------|

   No pipe did hum and no battle drum, did sound its dread tat too. But the

E----------------------------------------------------------------------------|
B----------------------------------------------------------------------------|
G---2--0-----2--0------------------------------------------------------------|
D---------2--------2---0--2----------------2--0------------------------------|
A--------------------------------0--2---3--------3----0------0---------------|
E----------------------------3---------------------------3-------------------|

   Angelus bell o'er the Liffey's swell rang out in the foggy dew.
Tap to rate this tab
 
# A B C D E F G H I J K L M N O P Q R S T U V W X Y Z