Song name
# A B C D E F G H I J K L M N O P Q R S T U V W X Y Z

Dubliners - Oro Se Do Bheatha Bhaile tab

Help us improve GuitareTab! Take a short survey!
Standard Tuning

**This is my own interpretation of this song. It works for me. :)**

ENJOY!!

e|-------------------------------------------------------------------|
B|-------------------------------------------------------------------|
G|-------------------------------------------------------------------|
D|---12--12--10-12--12s14--12--10------10--10--------10-----10--12---|
A|---------------------------------12----------10h12-----12----------|
E|-------------------------------------------------------------------|


e|-------------------------------------------------------------------|
B|-------------------------------------------------------------------|
G|-----------------------------9--12---12--12s14------12-------------|
D|---12--12--10-12--12s14--12---------------------14------14--12--12-|
A|-------------------------------------------------------------------|
E|-------------------------------------------------------------------|

Please email me with corrections or add on's: simonconroy0806@yahoo.co.uk

Related for Oro Se Do Bheatha Bhaile tab