Song name
# A B C D E F G H I J K L M N O P Q R S T U V W X Y Z

Duck Baker - Return To California And Harvest Home tab

I just know the first part so far.
After you get used to the style or whatever it gets pretty easy.


Normal Tuning

Listen to the song for the speed.
Guess its kinda fast..


E|----------------------------------3-0-2-3-5-3-2-3-0---------|
B|-----------------0---------------3-----------------3---0----|
G|------------0--0--2-0-----------4-------------------4-2-2-0-|
D|------0-2-4---4----------0-2-4-5---------------------5-----3|
A|------------------------------------------------------------|
E|------------------------------------------------------------|


E|----------------------------------3-0-3-5-3-2-3-0------------|
B|----------------0----------------3---------------3-----------|
G|-----------0--0--2-0------------4-----------------4-2-4-2-0-0|
D|-----0-2-4--4------------0-2-4-5-------------------5-------4-|
A|-------------------------------------------------------------|
E|-------------------------------------------------------------|

Thats all I have for that song.
Questions or comments email me at nathan3xplosion@aol.com
Tap to rate this tab
# A B C D E F G H I J K L M N O P Q R S T U V W X Y Z