Duck Sauce - Barbra Streisand chords

Highlighted       Show chord diagrams
Whole song base on these chords

Capo on 1st Fret :


 D#   F#   G#
-2----1----3-----------------------|
-3----1----3-----------------------|
-2----2----5-----------------------|
------3----6-----------------------|
-----------------------------------|
-----------------------------------|


alternative without capo:

 D#   F#   G#
-2----1----3-----------------------|
-3----1----3-----------------------|
-2----2----5-----------------------|
-1----3----6-----------------------|
-----------------------------------|
-----------------------------------|
Tap to rate this tab
 
# A B C D E F G H I J K L M N O P Q R S T U V W X Y Z