Song name
# A B C D E F G H I J K L M N O P Q R S T U V W X Y Z

Duck Sauce - Barbra Streisand tab

Artist:      Duck Sauce
Song:        Barbra Streisand
tabbed by:   Stian Kvalsund
             Stian_rock@hotmail.com


After looking on the other tabs, here is the way I think its played. So enjoy! And dont 
forget to wote and leave comments!


intro:
E--3---2---4------|--3---2---4------|--3---2---4------|---3---2---------|
B--4---2---4------|--4---2---4------|--4---2---4------|---4---2---------|
G--3---3---5------|--3---3---5------|--3---3---5------|---3---3---------|
D------4---6------|------4---6------|------4---6------|-------4---------|
A-----------------|-----------------|-----------------|-----------------|
E-----------------|-----------------|-----------------|-----------------|


vocal:

E--6--9--6--9---6-----6---------------------------------|
B------------------9-----9---7--9--7--------------------|
G-------------------------------------------------------|
D-------------------------------------------------------|
A-------------------------------------------------------|
E-------------------------------------------------------|

repitate these riffs trought the song.
Tap to rate this tab
 
# A B C D E F G H I J K L M N O P Q R S T U V W X Y Z