Song name
# A B C D E F G H I J K L M N O P Q R S T U V W X Y Z

Duck Sauce - Barbra Streisand tab

|-----------------------------------|
|-11-14-11-14-11---11---------------|
|----------------13---13-11-13-11---|
|-----------------------------------|
|-----------------------------------|
|-----------------------------------|


|11------2-----4--------------------|
|11------2-----4--------------------|
|11-12---2-3---4-5------------------|
|11--13--2--4--4--6-----------------|
|11--13--2--4--4--6-----------------|
|11------2-----4--------------------|
Tap to rate this tab
 
# A B C D E F G H I J K L M N O P Q R S T U V W X Y Z