Song name
# A B C D E F G H I J K L M N O P Q R S T U V W X Y Z

Duck Sauce - Barbra Streisand tab

Here's the appropriate tab for the song. This is done because all the tabs I've seen are 
somewhat not right, enjoy.



|-----------------|
|-----------------|
|--1---4---6------|
|--2---5---7------|
|--2---5---7------|
|-----------------|


|------------------------------------------------|
|--12-15-12-15-12-10-12-10----10-----------------|
|--------------------------12----12--------------|
|------------------------------------------------|
|------------------------------------------------|
|------------------------------------------------|
Tap to rate this tab
 
# A B C D E F G H I J K L M N O P Q R S T U V W X Y Z