Duck Sauce - Barbra Streisand tab

Here's a little solo guitar arrangement I made as a joke for my friend.

Tabbed by: TheNotObnoxious

Tuning: D A D G B E

INTRO/BUILDUP:

e|------------------      ------------------|
B|------------------      ------------------|
G|0--------3----5--- x 2  0--------3----5---| x 2
D|------------------      ------------------|
A|------------------      ------------------|
E|1--------4----6---      1----1---4----6---|

e|----------------        e|--------------------------------|
B|----------------        B|--------------------------------|
G|0-------3---5--- x 2    G|0-------3---5---0-------3---5---|
D|----------------        D|--------------------------------|
A|----------------        A|--------------------------------| BARBRA
E|1-1-1-1-4-4-6-6-        E|11111111444466661111111144446---| STRESIAND!

OO WEE OO WEE EE OO etc...

e|-------------------------------------|
B|-------------------------------------|
G|----2----2---------------------------|
D|--3---3------3-1--8---6-4--6---4-----|
A|---------------------------------6---|
E|1--------1--------4--------6---------|

e|-------------------------------------|
B|-------------------------------------|
G|----2----2---------------------------|
D|--3---3------3-1--8---6-4--6---4--x--|
A|----------------------------------x--|
E|1--------1--------4--------6------x--|

Just repeat this shit until you're sick of it, it's pretty fun to play.

************************************

| /   slide up
| \   slide down
| h   hammer-on
| p   pull-off
| ~   vibrato
| +   harmonic
| x   Mute note
| b   Bend
| pb  Pre-bend
| br  Bend release
| pbr Pre-bend release
| brb Bend release bend

************************************
Tap to rate this tab
 
# A B C D E F G H I J K L M N O P Q R S T U V W X Y Z