Ducktails - Art Vandelay tab

-------------------------------------------------------------------------------
			     ART VANDELAY - Ducktails
-------------------------------------------------------------------------------
Tabbed by:Matt (ars3nalpromo)
Email:neonintercitymind@hotmail.com

Tuning:Capo on 1st fret


Guitar 1: INTRO & CHORUS
e|--------------------------------------------------------------------------|
B|--------------------------------------------------------------------------|
G|--------------------------------------------------------------------------|
D|-------5--5--5-5-7--------------------------------------------------------|
A|--------------------7--7--7--7-5-7----------------------------------------|
E|--------------------------------------------------------------------------|


Guitar 1: INTRO PT.2 & VERSE
e|--------------------------------------------------------------------------|
B|--------------------------------------------------------------------------|
G|--------------------------------------------------------------------------|
D|-------5-5-7-----------5-5-7----------------------------------------------|
A|-------------7-5-------------7-5---5--------------------------------------|
E|-----------------8---------------8----------------------------------------|


Guitar 2: INTRO & CHORUS
simple chords, really

C    Dm    C    Am

you can figure out the strummin FO YO SELF FOO
Guitar 2: INTRO PT.2 & VERSE

C    Dm
same thing applies here as above. LISTEN TO THE SONG


LYRICS:
(these are questionable at best, in some places it's hard to hear what he's saying)

in the middle of the night
I went to find my handkerchief
wasn't where I thought it was
you're always looking where you think it is

walkin up the stairs
I saw a person standing there
I asked her where she thought it was
she says nothing's where you think it is

everybody knows
that it burns
it's hard to finish
and you're not really into it

under a blanket
people are sleepin
I still couldn't remember
the object of my vision

I never woke up from that night
I never finished sleepin
cause I couldn't fuck before the light
no I couldn't finish sleepin

everybody knows
that it burns
it's hard to finish
and you're not really into it x2

[little interlude part]

everybody knows
that it burns
it's hard to finish
and you're not really into it x2


Ducktails' myspace:http://www.myspace.com/ducktailss
Tap to rate this tab
 
# A B C D E F G H I J K L M N O P Q R S T U V W X Y Z