Song name
# A B C D E F G H I J K L M N O P Q R S T U V W X Y Z

Ducktails - Killin The Vibe tab

Artist: Ducktails
Song: Killin the Vibe
Album: Ducktails III: Arcade Dynamics (2010)

Intro/riff (it just keeps going back between those two chords so listen to the song to 
get it down, I didn't want to tab anything else)

|-----------9-----------------------9------|
|-7----9S11----7----------7----9S11----7---|
|---8------------6--6h8-6---8------------6-|
|---9------------8--8-8-8---9------------8-|
|------------------------------------------|
|------------------------------------------|

Other guitar part going on at the same time

|------------------------------------------------------------|
|------------------------------------------------------------|
|-6------------6-8------------6-------------6-8--------------|
|---8--6-8p6---------6-8p6------8--6-8p6----------6-8p6------|
|------------7-----7-------7-------------7------7-------7----|
|------------------------------------------------------------|
Tap to rate this tab
# A B C D E F G H I J K L M N O P Q R S T U V W X Y Z