Guitaretab - guitar tabs
Song name
# A B C D E F G H I J K L M N O P Q R S T U V W X Y Z

Ducky Boys - All For One And One For All tab

Band: The Ducky Boys
Song: All for one and one for all
Album: Dark Days
Transcriber: Robert Johnstone
Standard tuning

This is one of the greatest punk bands ever! They are like the dropkick Murphy's
but much better!
I have only heard and seen this album of theirs "dark days"

Intro
E---------------------------------------------|
B---------------------------------------------|
G------------7----------6---------4-----------|
D---7--------7----------6---------4-----------|
A---7--------5----------4---------2-----------|
E---5-----------------------------------------|

All for one GO!
E---------------------------------------------|
B---------------------------------------------|
G------------7----------6---------4-----------|
D---7--------7----------6---------4-----------|
A---7--------5----------4---------2-----------|
E---5-----------------------------------------|

E-----------------------|
B-----------------------|
G----------7------------|
D----7-----7------------|
A----7-----5------------|
E----5------------------|

E---------------------------------------------------------|
B---------------------------------------------------------|
G------------7---------7-------7----6--------4------------|
D---7--------7-----7---7---7---7----6--------4------------|
A---7--------5-----7---5---7---5----4--------2------------|
E---5--------------5--------5-----------------------------|
[ Tab from: http://www.guitaretab.com/d/ducky-boys/57477.html ]
E---------------------------------------------|
B---------------------------------------------|
G------------7----------6---------4-----------|
D---7--------7----------6---------4-----------|
A---7--------5----------4---------2-----------|
E---5-----------------------------------------|

E---------------------------------------------------------|
B---------------------------------------------------------|
G------------7---------7-------7----6--------4------------|
D---7--------7-----7---7---7---7----6--------4------------|
A---7--------5-----7---5---7---5----4--------2------------|
E---5--------------5--------5-----------------------------|

E---------------------------------------------|
B---------------------------------------------|
G------------7----------6---------4-----------|
D---7--------7----------6---------4-----------|
A---7--------5----------4---------2-----------|
E---5-----------------------------------------|

E---------------------------------------------------------|
B---------------------------------------------------------|
G------------7---------7-------7----6--------4------------|
D---7--------7-----7---7---7---7----6--------4------------|
A---7--------5-----7---5---7---5----4--------2------------|
E---5--------------5--------5-----------------------------|

E---------------------------------------------|
B---------------------------------------------|
G------------7----------6---------4-----------|
D---7--------7----------6---------4-----------|
A---7--------5----------4---------2-----------|
E---5-----------------------------------------|


I too lazy to say how many times each fill is repeated but I put them in order as you
can see its basic and you shouldn't have problems if you think this is accurate then
rate it 5/5 but is 100%accurate try it for yourself and you will have the correct song!
no lies!
Related for All For One And One For All tab
Advertisement will be closed in 10 seconds