Song name
# A B C D E F G H I J K L M N O P Q R S T U V W X Y Z

Dudes - Bliss tab

Help us improve GuitareTab! Take a short survey!
#----------------------------------PLEASE NOTE---------------------------------#
#This file is the author's own work and represents their interpretation of the #
#song. You may only use this file for private study, scholarship, or research. #
#------------------------------------------------------------------------------##
From: sandy@waikato.ac.nz (Sandy Davidson)

Bliss - The Dudes

   D
e:------------------------------------------|
B:------------------------------------------|
G:-11-11-11-11-0-9-0-7-0-6-0-2-2------------|
D:--0--0--0--0-0-0-0-0-0-0-0-0-0-----4/11---|  Figure 1a
A:------------------------------------------|
E:------------------------------------------|


   A
e:------------------------------0--0--------|
B:------------------------------14-9--------|
G:-----------------------------------11-9---|  Figure 1b
D:-11-11-11-11---9---9-11-14\11-------------|
A:--0--0--0--0-0-0-0-0--0-------------------|
E:------------------------------------------|


   E
e:------------------------------------------|
B:------------------------------------------|
G:-----9------9------9------9------8-9------|  Figure 2a
D:-9-9-9--9-9-9--9-9-9--9-9-9--9-9---9------|
A:-7-7-7--7-7-7--7-7-7--7-7-7--7-7----------|
E:------------------------------------------|


   E
e:------------------------------------------|
B:------------------------------------------|
G:-----9------9------9-9-9-9-8-9-9-8--------|  Figure 2b
D:-9-9-9--9-9-9--9-9-9-9-9-9-7-9-9-7--------|
A:-7-7-7--7-7-7--7-7-7-7-7-7---7-7----------|
E:------------------------------------------|


   E
e:------------------------------------------------|
B:---------------------9-9--9---------------------|
G:-----9------9------9-9-9--9--9-9-9-8-x-8-x-9-9-9|  Figure 3a
D:-9-9-9--9-9-9--9-9-9-9-9--9--9-9-9-7-x-7-x-9-9-9|
A:-7-7-7--7-7-7--7-7-7-7-7--7--7-7-7---------7-7-7|
E:------------------------------------------------|

e:--------|
B:--------|
G:-8-9-9-8|  Figure 3b
D:-7-9-9-7|
A:---7-7--|
E:--------|


Play this for the intro: (its mostly all palm muted)

1a, 1b, 2a, 2b,
1a, 1b, 3a, 3b

Then sing "Yaaaaaaaaaaaaaaaa ya ya ya yaaaaa" loudly!

The rest of the song is variations on the same thing.  Credit for the notes goes to my
girlfriend, Heather, I only figured out the fingerings and typed up the tab using Tab Master
1.0 by Ofir Zwebner (cool program).


----------------------------------------------------------------------------------------------------------
Sandy Davidson - sandy@waikato.ac.nz
Related for Bliss tab