Song name
# A B C D E F G H I J K L M N O P Q R S T U V W X Y Z

Dudes - Triple Pound tab

Triple Pound by The Dudes

this little song i made up in my spare time, its got a nice little riff to it.  Enjoy!!!


------------------------------------------------------------|
------------------------------------------------------------|
--------------------12-------12------12---------------------|
-----------12--14--------14------14-------------------------|
---12--14---------------------------------------------------|
------------------------------------------------------------|

------------------------------------------------------------|
------------------------------------------------------------|
-------------------12--------15--14--12---------------------|
----------12--14--------12----------------------------------|
--12---14---------------------------------------------------|
------------------------------------------------------------|

------------------------------------------------------------|
------------------------------------------------------------|
--------------------12-------12------12---------------------|
-----------12--14--------14------14-------------------------|
---12--14---------------------------------------------------|
------------------------------------------------------------|


------------------------------------------------------------|
------------------------------------------------------------|
-------------------12--------15--14--12---------------------|
----------12--14--------12----------------------------------|
--12---14---------------------------------------------------|
------------------------------------------------------------|


--------------------------------------------------------------------|
----------14-14-15-14-14-15-14-14-15-14-14-15-14-14-15-14-14-15--14-|
----12-12-----------------------------------------------------------|
--------------------------------------------------------------------|
--------------------------------------------------------------------|
--------------------------------------------------------------------|


--------------------------------------------------------------------|
--------------------------------------------------------------------|
---15-14-12-12------12-----12---------------------------------------|
----------------14-----14-------------------------------------------|
--------------------------------------------------------------------|
--------------------------------------------------------------------|

--------------------------------------------------------------------|
----------14-14-15-14-14-15-14-14-15-14-14-15-14-14-15-14-14-15--14-|
----12-12-----------------------------------------------------------|
--------------------------------------------------------------------|
--------------------------------------------------------------------|
--------------------------------------------------------------------|


--------------------------------------------------------------------|
--------------------------------------------------------------------|
-----17-15-12-12----12------12--------------------------------------|
-----------------14-----14------------------------------------------|
--------------------------------------------------------------------|
--------------------------------------------------------------------|
back to top repeat 2x over the whole thing
Tap to rate this tab
# A B C D E F G H I J K L M N O P Q R S T U V W X Y Z