Song name
# A B C D E F G H I J K L M N O P Q R S T U V W X Y Z

Duels - What We Did Wrong tab

Hello, this is the piano intro for what we did wrong-this is my first tab, hope its
right!!! This is a new relatively recent band-and there aren't any tabs yet-and i was
getting annoyed, so here it is!


E----------------------8-7-----------------------|
B-------10--9h10-9h10------10-9---9--------------|
G----9-------------------------------9---9-7-----|
D---------------------------------------------10-|
A------------------------------------------------|
E------------------------------------------------|

E----------------------8-7-----------------------|
B-------10--9h10-9h10------10-9---9--------------|
G----9-------------------------------9---9-7-----|
D---------------------------------------------10-|
A------------------------------------------------|
E------------------------------------------------|

Have fun, Funkage!
Tap to rate this tab
# A B C D E F G H I J K L M N O P Q R S T U V W X Y Z