Song name
# A B C D E F G H I J K L M N O P Q R S T U V W X Y Z

Duff Mckagans Loaded - Sleaze Factory tab

very easy song to play.tunning is half tone down.loaded rocks!

Duffs part for intro and verse: 
e----------------------------------------------------------------------|
B----------------------------------------------------------------------|
G----------------------------------------------------------------------|
D--------5---5--------5---7--------------------------------------------|
A------7--xx---7-xx-7--xx---7------------------------------------------|
E----------------------------------------------------------------------|

Mike And Jeff do:
e-----------------------------------------------------------------------------------|
B-----------------------------------------------------------------------------------|
G-----------------------------------------------------------------------------------|
D-----------------------------------------------------------------------------------|
A-----------------------------------------------------------------------------------|
E------0-0-00-0--0-0----0-3-3-33-3--3-3----3-5-5-5-56-6--6-5-3-0--0-0-00-0--0-0-----|


Chorus (chords..play the rhythm yourself..it's really easy)
e----------------------------------------------|
B----------------------------------------------|
G----------------------------------------------|
D-2------5-------7----8---2--------------------|
A-2------5-------7----8---2--------------------|
E-0------3-------5----6---0--------------------|


Bridge:
e-------------------------------|
B-------------------------------|
G-------------------------------|   3x
D-8888-8752--222222-------------|
A-8888-8752--222222-------------|
E-6666-6530--000000-------------|

the 4. time add

e-------------------------------|
B-------------------------------|
G-------------------------------|
D-55555555--7777777-------------|
A-55555555--7777777-------------|
E-33333333--5555555-------------|

end
e-----------------------|
B-----------------------|
G-----------------------|
D-57-57-57-57-----------|
A-57-57-57-57-----------|
E-33-35-35-35-----------|
Tap to rate this tab
# A B C D E F G H I J K L M N O P Q R S T U V W X Y Z