Guitaretab - guitar tabs
Song name
# A B C D E F G H I J K L M N O P Q R S T U V W X Y Z

Duffy - Warick Avenue tab

This is the Intro/Verse, it's 98% correct from what i can hear..just the end may be a 
off. Strumming for chords/mutes is one down, then up/down in quick succession. Enjoy.
[ Tab from: http://www.guitaretab.com/d/duffy/110166.html ]
---6-----------------------5--5-x--------------------6--6-x---------------|
---6-----------------------6--6-x--------------------8--8-x---------------|
---7-----------------------5--5-x--------------------8--8-x---------------|
---8--8-x------------------7----------------8--10----8--------------8--10-|
---8--8-x---------8--10----5--------8--8/12----------6--------8--10-------|
---6--6-x---8--10---------------------------------------------------------|


---7--7-x---7-7---7------------------------------------------------------|
---9--9-x---9--9--9------------------------------------------------------|
---9--9-x---9---9-9------------------------------------------------------|
---9---------------------------------------------------------------------|
---7---------------------------------------------------------------------|
-------------------------------------------------------------------------|

This is my first tab, let me know what you think.
Related for Warick Avenue tab
Advertisement will be closed in 10 seconds