Song name
# A B C D E F G H I J K L M N O P Q R S T U V W X Y Z

Duke Dumont - I Got U tab

------------------------------------------------------------------------------
			   Duke Dumont - I Got U
------------------------------------------------------------------------------

Got this song on repeat all week, so I took the time to tab it. :)
I arranged it for 2 guitars, sounds better, but it can be played with one.
One guitar's body can be used as a percussion while it's idle.

Artist: http://dukedumont.com/
Song: https://www.youtube.com/watch?v=FHCYHldJi_g

Intro:
e|----------------------|-----------------------|
B|---13--13-13---12-13--|---13--13-13---12-13---|
G|----------------------|-----------------------|
D|----------------------|-----------------------|
A|----------------------|-----------------------|\
E|----------------------|-----------------------| \
                                                   x2
e|---12--12-12---10-----|---12--12-12---10----10| /
B|------------------13--|------------------13---|/
G|----------------------|-----------------------|
D|----------------------|-----------------------|
A|----------------------|-----------------------|
E|----------------------|-----------------------|

   F         Em     F         G      Am        C      G         Em
e|-1---------0----|-1---------3----|-0---------0----|-3---------0----|
B|-1---------0----|-1---------0----|-1---------1----|-0---------0----|
G|-2---------0----|-2---------0----|-2---------0----|-0---------0----| x2
D|-3---------2----|-3---------0----|-2---------2----|-0---------2----|
A|-3---------2----|-3---------2----|-0---------3----|-2---------2----|
E|-1---------0----|-1---------3----|----------------|-3---------0----|


Verse:
   F         Em     F         G      Am        C      G         Em
e|-1---------0----|-1---------3----|-0---------0----|-3---------0----|
B|-1---------0----|-1---------0----|-1---------1----|-0---------0----|
G|-2---------0----|-2---------0----|-2---------0----|-0---------0----| x2
D|-3---------2----|-3---------0----|-2---------2----|-0---------2----|
A|-3---------2----|-3---------2----|-0---------3----|-2---------2----|
E|-1---------0----|-1---------3----|----------------|-3---------0----|


Chorus:
   F         Em     F         G      Am        C      G         Em
e|-1---------0----|-1---------3----|-0---------0----|-3---------0----|
B|-1---------0----|-1---------0----|-1---------1----|-0---------0----|
G|-2---------0----|-2---------0----|-2---------0----|-0---------0----| G1
D|-3---------2----|-3---------0----|-2---------2----|-0---------2----|
A|-3---------2----|-3---------2----|-0---------3----|-2---------2----|\
E|-1---------0----|-1---------3----|----------------|-3---------0----| \
 |                                                                   |  x2
e|-5-5---3-----3--|-5-5---3-----3--|-5-5---3-----3--|----------------| /
B|-----------5----|-----------5----|-----------5----|----------------|/
G|----------------|----------------|----------------|----------------| G2
D|----------------|----------------|----------------|----------------|
A|----------------|----------------|----------------|----------------|
E|----------------|----------------|----------------|----------------|


Instrumental: 

Strum the chords while guitar 2 plays melody from intro.

G1:
   F         Em     F         G      Am        C      G         Em
e|-1---------0----|-1---------3----|-0---------0----|-3---------0----|
B|-1---------0----|-1---------0----|-1---------1----|-0---------0----|
G|-2---------0----|-2---------0----|-2---------0----|-0---------0----| x2
D|-3---------2----|-3---------0----|-2---------2----|-0---------2----|
A|-3---------2----|-3---------2----|-0---------3----|-2---------2----|
E|-1---------0----|-1---------3----|----------------|-3---------0----|

G2:  
e|----------------------|-----------------------|
B|---13--13-13---12-13--|---13--13-13---12-13---|
G|----------------------|-----------------------|
D|----------------------|-----------------------|
A|----------------------|-----------------------|\
E|----------------------|-----------------------| \
                                                   x2
e|---12--12-12---10-----|---12--12-12---10----10| /
B|------------------13--|------------------13---|/
G|----------------------|-----------------------|
D|----------------------|-----------------------|
A|----------------------|-----------------------|
E|----------------------|-----------------------|


Verse  

Chorus 

Instrumental


Bridge:

G1:
   Am               G                D                F*           G**
e|-0--------------|-3--------------|-2--------------|-1------------3-|
B|-1--------------|-0--------------|-3--------------|-1------------0-|
G|-2--------------|-0--------------|-2--------------|-2------------0-| x4
D|-2--------------|-0--------------|-0--------------|-3------------0-|
A|-0--------------|-2--------------|----------------|-3------------2-|
E|----------------|-3--------------|----------------|-1------------3-|

(*)-  4th repeat ends with F
(**)- quick change from G to Am

G2(from 3rd repeat):
e|-5-5---3-----3--|----------------|-5-5---3-----3--|----------------|
B|-----------5----|----------------|-----------5----|----------------|
G|----------------|----------------|----------------|----------------| x2
D|----------------|----------------|----------------|----------------|
A|----------------|----------------|----------------|----------------|
E|----------------|----------------|----------------|----------------|


Instrumental 'till the end...


Lyrics:

Ask me what I did with my life
I spent it with you
If I lose my fame and fortune
(Really don't matter)
As long as I got you, baby

Clap your hands y'all it's alright [x3]
As long as I got you, baby
Clap your hands y'all it's alright [x3]
As long as I got you

Ask me what I did with my life
I spent it with you
If I lose my fame and fortune
(Really don't matter)
As long as I got you, baby

Clap your hands y'all it's alright [x3]
As long as I got you, baby
Clap your hands y'all it's alright [x3]
As long as I got you

As the years they pass us by
(Years they, years they, years they)
We stay young through each other's eyes
(Each other's eyes)
And no matter how old we get
It's okay, as long as I got you, baby

Clap your hands y'all it's alright
As long as I got you, baby
Clap your hands y'all it's alright
As long as I got you, baby
Clap your hands y'all it's alright
As long as I got you, baby
Clap your hands y'all it's alright
As long as I got you, baby
As long as I got you [x5]
Tap to rate this tab
# A B C D E F G H I J K L M N O P Q R S T U V W X Y Z