Guitaretab - guitar tabs
Song name
# A B C D E F G H I J K L M N O P Q R S T U V W X Y Z

Duke Spirit - Say Hello To The Floor tab

-------------------------------------------------------------------------------
			    The Duke Spirit - Say Hello To The Floor
-------------------------------------------------------------------------------
Tabbed by:IndieRocke45 (Calvin Ramsey)
Email:IndieRocker45@msn.com

Tuning:standard

   --Intro--

e|-----------------------------------------------------------------------------------|
B|-----------------------------------------------------------------------------------|
G|------9\2-----9\2------------------------------------------------------------------|
D|--2/9-----2/9----------------------------------------------------------------------|
A|-----------------------------------------------------------------------------------|
E|-----------------------------------------------------------------------------------|

   1st Guitar

e|--------------------------------------------------------------------------------|
B|--------------------------------------------------------------------------------|
G|------2/9-----------------------------------------------------------------------|
D|--9\2---------------------------------------------------------------------------|
A|--------------------------------------------------------------------------------|
E|--------------------------------------------------------------------------------|

    2nd Guitar
                         D
e|--0000000000000000----222222222222--|
B|--2222222222222222----333333333333--|
G|--2222222222222222----222222222222--|
D|------------------------------------|
A|------------------------------------|
E|------------------------------------|

        --Verse--
     v Pretty much just plays this throughout the whole verse v
                    v v v v v v v v v v v v v
[ Tab from: http://www.guitaretab.com/d/duke-spirit/100783.html ]
e|-----------------------------------------------------------------------------------|
B|-----------------------------------------------------------------------------------|
G|------2/9-----2\9------------------------------------------------------------------|
D|--9\2-----9\2----------------------------------------------------------------------|
A|-----------------------------------------------------------------------------------|
E|-----------------------------------------------------------------------------------|

         Pre-Chorus

e|--0--0-0-0-0h2--2-2-------------------------------------------------------------------|
B|--3--3-3-3-3----3-3-------------------------------------------------------------------|
G|--2--2-2-2-2----2-2-------------------------------------------------------------------|
D|---------0----------------------------------------------------------------------------|
A|--------------------------------------------------------------------------------------|
E|--------------------------------------------------------------------------------------|

         --Chorus--
           Pretty Much Back To The Intro....

1st Guitar

e|--------------------------------------------------------------------------------|
B|--------------------------------------------------------------------------------|
G|------2/9-----------------------------------------------------------------------|
D|--9\2---------------------------------------------------------------------------|
A|--------------------------------------------------------------------------------|
E|--------------------------------------------------------------------------------|

    2nd Guitar
                         D
e|--0000000000000000----222222222222--|
B|--2222222222222222----333333333333--|
G|--2222222222222222----222222222222--|
D|------------------------------------|
A|------------------------------------|
E|------------------------------------|


| /  slide up
| \  slide down
| h  hammer-on
| p  pull-off
| ~  vibrato
| +  harmonic
| x  Mute note
=============================================================================
Related for Say Hello To The Floor tab
Advertisement will be closed in 10 seconds