Song name
# A B C D E F G H I J K L M N O P Q R S T U V W X Y Z

Dum Dums - Closer To You tab

Author/Artist: Dum dums
Title: Closer to you
Album: -
Transcribed by: L33
Email: kidrocker@hotmail.com

----------------------------------------------------------------------------|
----------------------------------------------------------------------------|
------2---2---2---2---------------------------------------------------------|
----3---3---3---3-----------------------------------------------------------|
----------------------------------------------------------------------------|
----------------------------------------------------------------------------|
              Intro

----------------------------------------------------------------------------|
----------------------------------------------------------------------------|
------0-----0-----0-----0---------------------------------------------------|
----2-----4-----0-----2-----------------------------------------------------|
--3-----5-----2-----3-------------------------------------------------------|
----------------------------------------------------------------------------|
                Verse

---3-----3---3---3----------------------------------------------------------|
---3-----3---3---3----------------------------------------------------------|
---0-----2---2---0----------------------------------------------------------|
---2-----0---0---2----------------------------------------------------------|
---3---------0---3----------------------------------------------------------|
-------------2--------------------------------------------------------------|
         Chorus (strum notes,listen to track for number of times)

-------3----3----3----------------------------------------------------------|
-------3----3----3----------------------------------------------------------|
-------0----0----2----------------------------------------------------------|
-2-----2----0----0----------------------------------------------------------|
-2-----3----2---------------------------------------------------------------|
-0----------3---------------------------------------------------------------|
              Interlude (feel free to take me for granted...)

----------------------------------------------------------------------------|
----------------------------------------------------------------------------|
--------0----0------0----0--------------------------------------------------|
------2----4------0----2----------------------------------------------------|
----3----5------2----3------------------------------------------------------|
----------------------------------------------------------------------------|
                 Interlude 2 (So long...., Different picking to verse)
Tap to rate this tab
# A B C D E F G H I J K L M N O P Q R S T U V W X Y Z