Song name
# A B C D E F G H I J K L M N O P Q R S T U V W X Y Z

Dum Dums - Kind Of Day Ive Had tab

Author/Artist: Dum dums
Title: The Kinda day I've had
Album: It goes without saying
Transcribed by: Lee Kemp
Email: kidrocker@hotmail.com

----------------------------------------------------------------------------|
-566-85566-85566-85566-85566-85566-85566-85566------------------------------|
-555-55555-55555-55555-55555-55555-55555-55555------------------------------|
----------------------------------------------------------------------------|
----------------------------------------------------------------------------|
----------------------------------------------------------------------------|
 Jump!

----------------------------------------------------------------------------|
---8556656-8556656-8556656-8556656-85566656665666666------------------------|
---5555555-5555555-5555555-5555555-55555555555555555------------------------|
----------------------------------------------------------------------------|
----------------------------------------------------------------------------|
----------------------------------------------------------------------------|
 Verse

----------------------------------------------------------------------------|
----------------------------------------------------------------------------|
-------555-------333--------------------------------------------------------|
-2/33--555-2/33--333--------------------------------------------------------|
-2/33--333-2/33--111--------------------------------------------------------|
-0/11------0/11-------------------------------------------------------------|
 Chorus

----------------------------------------------------------------------------|
-------555------------------------------------------------------------------|
-------555--------33--------------------------------------------------------|
-2/33--333--2/33--33--------------------------------------------------------|
-2/33-------2/33--11--------------------------------------------------------|
-0/11-------0/11------------------------------------------------------------|
 End of chorus

----------------------------------------------------------------------------|
----------------------------------------------------------------------------|
-555-333--------------------------------------------------------------------|
-555-333-333-222-55555------------------------------------------------------|
-333-111-333-222-55555------------------------------------------------------|
---------111-000-33333------------------------------------------------------|
 Interlude

----------------------3b----------------------------------------------------|
----------------4b----------------------------------------------------------|
----2b----5b----------------------------------------------------------------|
-33----33----33----33-------------------------------------------------------|
-33----33----33----33-------------------------------------------------------|
-11----11----11----11-------------------------------------------------------|


----------------------------------------------------------------------------|
-566-85566-85566-85566-85566-85566-85566-85566-85566-85566-85566-856--------|
-555-55555-55555-55555-55555-55555-55555-55555-55555-55555-55555-555--------|
----------------------------------------------------------------------------|
----------------------------------------------------------------------------|
----------------------------------------------------------------------------|
 Outro

----------------------------------------------------------------------------|
----------------------------------------------------------------------------|
-----------33333333-----------33333333-----------33333333-66666666/77777777-|
-3333/2222-33333333-3333/2222-33333333-3333/2222-33333333-66666666/77777777-|
-3333/2222-11111111-3333/2222-11111111-3333/2222-11111111-44444444/55555555-|
-1111/0000----------1111/0000----------1111/0000----------------------------|
 End on

----------------------------------------------------------------------------|
----------------------------------------------------------------------------|
----------------------------------------------------------------------------|
-3--------------------------------------------------------------------------|
-3--------------------------------------------------------------------------|
-1--------------------------------------------------------------------------|
Tap to rate this tab
# A B C D E F G H I J K L M N O P Q R S T U V W X Y Z