Song name
# A B C D E F G H I J K L M N O P Q R S T U V W X Y Z

Dum Dums - Kids Set Fire tab

Author/Artist: Dum dums
Title: Kids set fire
Album:  -
Transcribed by: Lee Kemp
Email: Leekemp@mail.com

----------------------------------------------------------------------------|
-2-2-2h3p2-2-2--------------------------------------------------------------|
-2-2-------2-2--------------------------------------------------------------|
-2-2-------2-2--------------------------------------------------------------|
----------------------------------------------------------------------------|
----------------------------------------------------------------------------|
 RIFF1                                                     Repeated

----------------------------------------------------------------------------|
----------------------------------------------------------------------------|
----------------------------------------------------------------------------|
-555555--9-10-12------7-7--7-7--7-7--7-7------------------------------------|
-555555--9-10-12------7-7--7-7--7-7--7-7------------------------------------|
-333333--7-8--10------5-5--x-x--5-5--x-x------------------------------------|
 RIFF2

----------------------------------------------------------------------------|
-----2h3p2----2h3p2---------------------------------------------------------|
--22--------2---------------------------------------------------------------|
----------------------------------------------------------------------------|
----------------------------------------------------------------------------|
----------------------------------------------------------------------------|
 RIFF3                                                    Repeated

----------------------------------------------------------------------------|
----------------------------------------------------------------------------|
----------------------------------------------------------------------------|
--7-7-7-7--7-7-7-7--10-10-10-10--12-12-12-12---3-3-3-3-3-3-3-3--3-3-3-3-3-3-|
--7-7-7-7--7-7-7-7--10-10-10-10--12-12-12-12---3-3-3-3-3-3-3-3--3-3-3-3-3-3-|
--5-5-5-5--5-5-5-5--8--8--8--8---10-10-10-10---1-1-1-1-1-1-1-1--1-1-1-1-1-1-|


----------------------------------------------------------------------------|
----------------------------------------------------------------------------|
----------------------------------------------------------------------------|
-3-3--5-5-5-5-5-5-5-5--9-10-12----------------------------------------------|
-3-3--5-5-5-5-5-5-5-5--9-10-12----------------------------------------------|
-1-1--3-3-3-3-3-3-3-3--7-8--10----------------------------------------------|
 RIFF4 (Chorus)

I don't think the chorus ending is correct so feel free to correct it if you want
Tap to rate this tab
 
# A B C D E F G H I J K L M N O P Q R S T U V W X Y Z