Song name
# A B C D E F G H I J K L M N O P Q R S T U V W X Y Z

Dum Dums - Robot Boy tab

Author/Artist: Dum dums
Title: Robot boy
Album: You do something to me B-side
Transcribed by: L33
Email: kidrocker@hotmail.com

----------------------------------------------------------------------------|
----------------------------------------------------------------------------|
--55---55---55---5----------------------------------------------------------|
--55-5-55-5-55-5-5-5--33333-66666-------------------------------------------|
--33-5-33-5-33-5-3-5--33333-66666-------------------------------------------|
-----3----3----3---3--11111-44444-------------------------------------------|
            Intro/Verse

----------------------------------------------------------------------------|
----------------------------------------------------------------------------|
-5--------------------------------------------------------------------------|
-5-x8-3----6----------------------------------------------------------------|
-3----3-x8-6-x8-------------------------------------------------------------|
------1----4----------------------------------------------------------------|
 Palm muted bit (I'm walking on the edge of the motorway bridge)

----------------------------------------------------------------------------|
----------------------------------------------------------------------------|
-------5---------5---------5------------------------------------------------|
--7777-5-5--7777-5-5--7777-5-5-333-6----------------------------------------|
--7777-3-5--7777-3-5--7777-3-5-333-6----------------------------------------|
--5555---3--5555---3--5555---3-111-4----------------------------------------|
               Chorus

----------------------------------------------------------------------------|
----------------------------------------------------------------------------|
-55---55---55---5-----------------------------------------------------------|
-55-5-55-5-55-5-5-5-8-8-8-2-3-666-3-6-7-x-x-8-------------------------------|
-33-5-33-5-33-5-3-5-8-8-8-2-3-666-3-6-7-x-x-8-------------------------------|
----3----3----3---3-6-6-6-0-1-444-1-4-5-x-x-6-------------------------------|
               Interlude

----------------------------------------------------------------------------|
----------------------------------------------------------------------------|
-55---55---55---5-----------------------------------------------------------|
-55-5-55-5-55-5-5-5-8-------------------------------------------------------|
-33-5-33-5-33-5-3-5-8-------------------------------------------------------|
----3----3----3---3-6-------------------------------------------------------|
                   Ending

Ok, this is basically right, the interlude is messy and I can't hear everything thats 
on so its not 100%, if you figure it out let me know!
Tap to rate this tab
# A B C D E F G H I J K L M N O P Q R S T U V W X Y Z